Intro
C#--------0------------0-------|------0-------------0----|
B------0-----0-----0-------0---|---0-----0-------0-----0-|
F#-----------------------------|-------------------------|
C#-----------------------------|-------------------------|
G#--3-----------5--------------|-------------------------|
C#-----------------------------|-3-----------5-----------|

C#---------0------0-----0------ 
B-------0------0-----0-----0--- 
F#----------------------------- 
C#----------------------------- 
G#----------------------------- 
C#--6-------------------------- 


C#--------0----------0----|
B------0-----0----0-----0-|
F#------------------------|
C#------------------------|
G#------------------------|
C#--0---------------------|


C#--------0----0-----0-----|---0--|
B------0-----0----0--------|---0--|
F#-------------------------|---5--| ring
C#-------------------------|---0--|
G#--3----------------------|------|
C#-----------------------6-|------|

then... (verse too)
C#-----------0------0-----0-----0-|---------0----0-----0-------0-|
B---------------------------------|------------------------------|
F#------4-5------5-----4-----2----|-2-2---2----2----0------2-3---|
C#--------------------------------|-0-0--------------------------|
G#--0-0---------------------------|-x-x--------------------------|
C#--0-0---------------------------|-4-4--------------------------|


C#-----------0-----0-------0-----0-|-----------0-----0-----0------0-|
B----------------------------------|--------------------------------|
F#--3-3---3-----3-----3-5-----3----|--2-2---2-----2-----0-----------|
C#--0-0----------------------------|--0-0----------------------4----|
G#--x-x----------------------------|--x-x---------------------------|
C#--5-5----------------------------|--4-4---------------------------|

Show more