Sevendust: Bender

Transcribed by: Andrew Zara (disturbedfreak0520@yahoo.com)

Date last modified: June 11, 2007

PLEASE DO NOT COPY THIS TAB TO ANOTHER SITE
WITHOUT AUTHORS' PERMISSION. THANK YOU.

Tuning: Drop B (B,F#,B,E,G#,C#)

Clint Lowery

  H        E (022100@1)E (022100@1)Q    E (022100@1)E (022100@1)E (022100@1)E (022100@1)   H        E (022100@1)E (022100@1)Q    E (022100@1)E (022100@1)E (022100@1)E (022100@1) 
C#||----------------------------------|----------------------------------|
G#||--------------6----------7-----7--|----------------------------------|
E ||--------------7-------------------|-------------------------8-----8--|
B ||----------------------------------|--------------0----------5-----5--|
F#||----------------------------------|--------------0----------5-----5--|
B ||----------------------------------|--------------0-------------------|


  H        E (022100@1)E (022100@1)Q    E (022100@1)E (022100@1)E (022100@1)E (022100@1)   H        E (022100@1)E (022100@1)Q    E (022100@1)E (022100@1)E (022100@1)E (022100@1) 
----------------------------------|----------------------------------|
--------------6----------7-----7--|----------------------------------|
--------------7-------------------|-------------------------8-----8--|
----------------------------------|--------------0----------5-----5--|
----------------------------------|--------------0----------5-----5--|
----------------------------------|--------------0-------------------|


  S S S S S S S S S S E (022100@1)S S S S S S E (022100@1)S S E (022100@1) 
-----------------------------------------------|
----------------------6--------------6------6--|
----------------------7--------------7------7--|
-----------------------------------------------|
----------------------5--------------5------5--|
--6-6-6-6-6-6-6-6-6-6----6-6-6-6-6-6----6-6----|


  S S S S S S S S S S E (022100@1)S S S S S S E (022100@1)S S E (022100@1) 
-----------------------------------------------|
-----------------------------------------------|
----------------------5--------------5------5--|
----------------------5--------------5------5--|
----------------------5--------------5------5--|
--4-4-4-4-4-4-4-4-4-4----4-4-4-4-4-4----4-4----|


  S S S S S S S S S S E (022100@1)S S S S S S E (022100@1)S S E (022100@1) 
-----------------------------------------------|
----------------------6--------------6------6--|
----------------------7--------------7------7--|
-----------------------------------------------|
----------------------5--------------5------5--|
--6-6-6-6-6-6-6-6-6-6----6-6-6-6-6-6----6-6----|


  S S S S S S S S S S E (022100@1)S S S S S S E (022100@1)S S E (022100@1)   E.  S S E (022100@1)S E (022100@1)E (022100@1) 
-----------------------------------------------|---------------------|
-----------------------------------------------|--1------------------|
----------------------5--------------5------5--|--1------------------|
----------------------5--------------5------5--|--3------------------|
----------------------5--------------5------5--|--3---0---0--0-0--0--|
--4-4-4-4-4-4-4-4-4-4----4-4-4-4-4-4----4-4----|------0-L-0--0-0--0--|


  E.  S S E (022100@1)S S S E (022100@1)   E.  S S E (022100@1)S E (022100@1)E (022100@1)   E.  S S E (022100@1)S S S E (022100@1) 
----------------------|---------------------|----------------------|
--1-------------------|--1------------------|--1-------------------|
--1-------------------|--1------------------|--1-------------------|
--3-------------------|--3------------------|--3-------------------|
--3---0---0--0-0-0-0--|--3---0---0--0-0--0--|--3---0---0--0-0-0-0--|
------0-L-0--0-0-0-0--|------0-L-0--0-0--0--|------0-L-0--0-0-0-0--|


  H        Q       E (022100@1)S S S S S S S S S S S S E (022100@1) 
----------------|--------------------------------|
----------------|--7--7-7-7-7-7-7-7-7-7-7-7-7-7--|
----------------|--6--6-6-6-6-6-6-6-6-6-6-6-6-7--|
----------------|--4--4-4-4-4-4-4-4-4-4-4-4-4-0--|
----------------|--4--4-4-4-4-4-4-4-4-4-4-4-4-0--|
----------------|--4--4-4-4-4-4-4-4-4-4-4-4-4-0--|


  S S S S S S E (022100@1)S S S S S S S S    E (022100@1)S S S S S S S S S S S S E (022100@1) 
---------------------------------|--------------------------------|
--L-7-7-7-7-7-5--L-5-5-5-5-5-5-5-|--7--7-7-7-7-7-7-7-7-7-7-7-7-7--|
--L-7-7-7-7-7-5--L-5-5-5-5-5-5-5-|--6--6-6-6-6-6-6-6-6-6-6-6-6-7--|
--L-0-0-0-0-0-4--L-4-4-4-4-4-4-4-|--4--4-4-4-4-4-4-4-4-4-4-4-4-0--|
--L-0-0-0-0-0-3--L-3-3-3-3-3-3-3-|--4--4-4-4-4-4-4-4-4-4-4-4-4-0--|
--L-0-0-0-0-0--------------------|--4--4-4-4-4-4-4-4-4-4-4-4-4-0--|


  S S S S S S E (022100@1)S S S S S S S S    E (022100@1)S S S S S S S S S S S S E (022100@1) 
---------------------------------|--------------------------------|
--L-7-7-7-7-7-5--L-5-5-5-5-5-5-5-|--7--7-7-7-7-7-7-7-7-7-7-7-7-7--|
--L-7-7-7-7-7-5--L-5-5-5-5-5-5-5-|--6--6-6-6-6-6-6-6-6-6-6-6-6-7--|
--L-0-0-0-0-0-4--L-4-4-4-4-4-4-4-|--4--4-4-4-4-4-4-4-4-4-4-4-4-0--|
--L-0-0-0-0-0-3--L-3-3-3-3-3-3-3-|--4--4-4-4-4-4-4-4-4-4-4-4-4-0--|
--L-0-0-0-0-0--------------------|--4--4-4-4-4-4-4-4-4-4-4-4-4-0--|


  S S S S S S E (022100@1)S S S S S S S S    E (022100@1)S S S S S S S S S S S S E (022100@1) 
---------------------------------|--------------------------------|
--L-7-7-7-7-7-5--L-5-5-5-5-5-5-5-|--7--7-7-7-7-7-7-7-7-7-7-7-7-4--|
--L-7-7-7-7-7-5--L-5-5-5-5-5-5-5-|--6--6-6-6-6-6-6-6-6-6-6-6-6-3--|
--L-0-0-0-0-0-4--L-4-4-4-4-4-4-4-|--4--4-4-4-4-4-4-4-4-4-4-4-4-1--|
--L-0-0-0-0-0-3--L-3-3-3-3-3-3-3-|--4--4-4-4-4-4-4-4-4-4-4-4-4-1--|
--L-0-0-0-0-0--------------------|--4--4-4-4-4-4-4-4-4-4-4-4-4-1--|


  E (022100@1)S S S S S S S S S S S S E (022100@1)   E (022100@1)S S S S S S S S S S S S S S  
--------------------------------|---------------------------------|
--L--4-4-4-4-4-4-4-4-4-4-4-4-3--|--L--3-3-3-3-3-3-3-3-3-3-3-3-3-3-|
--L--3-3-3-3-3-3-3-3-3-3-3-3-2--|--L--2-2-2-2-2-2-2-2-2-2-2-2-2-2-|
--L--1-1-1-1-1-1-1-1-1-1-1-1-0--|--L--0-0-0-0-0-0-0-0-0-0-0-0-0-0-|
--L--1-1-1-1-1-1-1-1-1-1-1-1-0--|--L--0-0-0-0-0-0-0-0-0-0-0-0-0-0-|
--L--1-1-1-1-1-1-1-1-1-1-1-1-0--|--L--0-0-0-0-0-0-0-0-0-0-0-0-0-0-|


  H        E (022100@1)E (022100@1)Q    E (022100@1)E (022100@1)E (022100@1)E (022100@1)   H        E (022100@1)E (022100@1)Q    E (022100@1)E (022100@1)E (022100@1)E (022100@1) 
----------------------------------|----------------------------------|
--------------6----------6-----6--|----------------------------------|
--------------7----------7-----7--|--------------5----------5-----5--|
----------------------------------|--------------5----------5-----5--|
----------------------------------|--------------5----------5-----5--|
----------------------------------|----------------------------------|


  S S S S S S S S S S E (022100@1)S S S S S S E (022100@1)S S E (022100@1) 
-----------------------------------------------|
----------------------6--------------6------6--|
----------------------7--------------7------7--|
-----------------------------------------------|
----------------------5--------------5------5--|
--6-6-6-6-6-6-6-6-6-6----6-6-6-6-6-6----6-6----|


  S S S S S S S S S S E (022100@1)S S S S S S E (022100@1)S S E (022100@1) 
-----------------------------------------------|
-----------------------------------------------|
----------------------5--------------5------5--|
----------------------5--------------5------5--|
----------------------5--------------5------5--|
--4-4-4-4-4-4-4-4-4-4----4-4-4-4-4-4----4-4----|


  S S S S S S S S S S E (022100@1)S S S S S S E (022100@1)S S E (022100@1) 
-----------------------------------------------|
----------------------6--------------6------6--|
----------------------7--------------7------7--|
-----------------------------------------------|
----------------------5--------------5------5--|
--6-6-6-6-6-6-6-6-6-6----6-6-6-6-6-6----6-6----|


  S S S S S S S S S S E (022100@1)S S S S S S E (022100@1)S S E (022100@1)   E.  S S E (022100@1)S E (022100@1)E (022100@1) 
-----------------------------------------------|---------------------|
-----------------------------------------------|--1------------------|
----------------------5--------------5------5--|--1------------------|
----------------------5--------------5------5--|--3------------------|
----------------------5--------------5------5--|--3---0---0--0-0--0--|
--4-4-4-4-4-4-4-4-4-4----4-4-4-4-4-4----4-4----|------0-L-0--0-0--0--|


  E.  S S E (022100@1)S S S E (022100@1)   E.  S S E (022100@1)S E (022100@1)E (022100@1)   E.  S S E (022100@1)S S S E (022100@1) 
----------------------|---------------------|----------------------|
--1-------------------|--1------------------|--1-------------------|
--1-------------------|--1------------------|--1-------------------|
--3-------------------|--3------------------|--3-------------------|
--3---0---0--0-0-0-0--|--3---0---0--0-0--0--|--3---0---0--0-0-0-0--|
------0-L-0--0-0-0-0--|------0-L-0--0-0--0--|------0-L-0--0-0-0-0--|


  H.              E (022100@1)S S S S S S S S S S S S E (022100@1) 
---------------|--------------------------------|
---------------|--7--7-7-7-7-7-7-7-7-7-7-7-7-7--|
---------------|--6--6-6-6-6-6-6-6-6-6-6-6-6-7--|
---------------|--4--4-4-4-4-4-4-4-4-4-4-4-4-0--|
---------------|--4--4-4-4-4-4-4-4-4-4-4-4-4-0--|
---------------|--4--4-4-4-4-4-4-4-4-4-4-4-4-0--|


  S S S S S S E (022100@1)S S S S S S S S    E (022100@1)S S S S S S S S S S S S E (022100@1) 
---------------------------------|--------------------------------|
--L-7-7-7-7-7-5--L-5-5-5-5-5-5-5-|--7--7-7-7-7-7-7-7-7-7-7-7-7-7--|
--L-7-7-7-7-7-5--L-5-5-5-5-5-5-5-|--6--6-6-6-6-6-6-6-6-6-6-6-6-7--|
--L-0-0-0-0-0-4--L-4-4-4-4-4-4-4-|--4--4-4-4-4-4-4-4-4-4-4-4-4-0--|
--L-0-0-0-0-0-3--L-3-3-3-3-3-3-3-|--4--4-4-4-4-4-4-4-4-4-4-4-4-0--|
--L-0-0-0-0-0--------------------|--4--4-4-4-4-4-4-4-4-4-4-4-4-0--|


  S S S S S S E (022100@1)S S S S S S S S    E (022100@1)S S S S S S S S S S S S E (022100@1) 
---------------------------------|--------------------------------|
--L-7-7-7-7-7-5--L-5-5-5-5-5-5-5-|--7--7-7-7-7-7-7-7-7-7-7-7-7-7--|
--L-7-7-7-7-7-5--L-5-5-5-5-5-5-5-|--6--6-6-6-6-6-6-6-6-6-6-6-6-7--|
--L-0-0-0-0-0-4--L-4-4-4-4-4-4-4-|--4--4-4-4-4-4-4-4-4-4-4-4-4-0--|
--L-0-0-0-0-0-3--L-3-3-3-3-3-3-3-|--4--4-4-4-4-4-4-4-4-4-4-4-4-0--|
--L-0-0-0-0-0--------------------|--4--4-4-4-4-4-4-4-4-4-4-4-4-0--|


  S S S S S S E (022100@1)S S S S S S S S    E (022100@1)S S S S S S S S S S S S E (022100@1) 
---------------------------------|--------------------------------|
--L-7-7-7-7-7-5--L-5-5-5-5-5-5-5-|--7--7-7-7-7-7-7-7-7-7-7-7-7-4--|
--L-7-7-7-7-7-5--L-5-5-5-5-5-5-5-|--6--6-6-6-6-6-6-6-6-6-6-6-6-3--|
--L-0-0-0-0-0-4--L-4-4-4-4-4-4-4-|--4--4-4-4-4-4-4-4-4-4-4-4-4-1--|
--L-0-0-0-0-0-3--L-3-3-3-3-3-3-3-|--4--4-4-4-4-4-4-4-4-4-4-4-4-1--|
--L-0-0-0-0-0--------------------|--4--4-4-4-4-4-4-4-4-4-4-4-4-1--|


  E (022100@1)S S S S S S S S S S S S E (022100@1)   E (022100@1)S S S S S S S S S S S S E (022100@1) 
--------------------------------|--------------------------------|
--L--4-4-4-4-4-4-4-4-4-4-4-4-3--|--L--3-3-3-3-3-3-3-3-3-3-3-3-4--|
--L--3-3-3-3-3-3-3-3-3-3-3-3-2--|--L--2-2-2-2-2-2-2-2-2-2-2-2-3--|
--L--1-1-1-1-1-1-1-1-1-1-1-1-0--|--L--0-0-0-0-0-0-0-0-0-0-0-0-1--|
--L--1-1-1-1-1-1-1-1-1-1-1-1-0--|--L--0-0-0-0-0-0-0-0-0-0-0-0-1--|
--L--1-1-1-1-1-1-1-1-1-1-1-1-0--|--L--0-0-0-0-0-0-0-0-0-0-0-0-1--|


  E (022100@1)S S S S S S S S S S S S E (022100@1)   E (022100@1)S S S S S S S S S S S S S S  
--------------------------------|---------------------------------|
--L--4-4-4-4-4-4-4-4-4-4-4-4-3--|--L--3-3-3-3-3-3-3-3-3-3-3-3-3-3-|
--L--3-3-3-3-3-3-3-3-3-3-3-3-2--|--L--2-2-2-2-2-2-2-2-2-2-2-2-2-2-|
--L--1-1-1-1-1-1-1-1-1-1-1-1-0--|--L--0-0-0-0-0-0-0-0-0-0-0-0-0-0-|
--L--1-1-1-1-1-1-1-1-1-1-1-1-0--|--L--0-0-0-0-0-0-0-0-0-0-0-0-0-0-|
--L--1-1-1-1-1-1-1-1-1-1-1-1-0--|--L--0-0-0-0-0-0-0-0-0-0-0-0-0-0-|


  W                   W                   S S S S S S S S S S S S S S S S  
-------------------|-------------------|----------------------------------|
-------------------|-------------------|----------------------------------|
-------------------|-------------------|----------------------------------|
-------------------|-------------------|--2-2-2-2-2-2-2-2---2-2-2-2-2-2-2-|
-------------------|-------------------|--2-2-2-2-2-2-2-2---2-2-2-2-2-2-2-|
-------------------|-------------------|--2-2-2-2-2-2-2-2---2-2-2-2-2-2-2-|


  S S S S S S S S S S S S S S S S    W                   W                 
----------------------------------|-------------------|-------------------|
----------------------------------|-------------------|-------------------|
----------------------------------|-------------------|-------------------|
--2-2-2-2-2-2-2-2---2-2-2-2-2-2-2-|-------------------|-------------------|
--2-2-2-2-2-2-2-2---2-2-2-2-2-2-2-|-------------------|-------------------|
--2-2-2-2-2-2-2-2---2-2-2-2-2-2-2-|-------------------|-------------------|


  S S S S S S S S S S S S S S S S    S S S S S S S S S S S S S S S S  
----------------------------------|----------------------------------|
----------------------------------|----------------------------------|
----------------------------------|----------------------------------|
--2-2-2-2-2-2-2-2---2-2-2-2-2-2-2-|--2-2-2-2-2-2-2-2---2-2-2-2-2-2-2-|
--2-2-2-2-2-2-2-2---2-2-2-2-2-2-2-|--2-2-2-2-2-2-2-2---2-2-2-2-2-2-2-|
--2-2-2-2-2-2-2-2---2-2-2-2-2-2-2-|--2-2-2-2-2-2-2-2---2-2-2-2-2-2-2-|


  S S S S S S S S S S S S S S S S    S S S S S S S S S S S S S S S S  
----------------------------------|----------------------------------|
----------------------------------|----------------------------------|
----------------------------------|----------------------------------|
--0-0-0-0-0-0-0-----0-0-0-0-0-0-0-|--0-0-0-0-0-0-0-----0-0-0-0-0-0-0-|
--0-0-0-0-0-0-0-----0-0-0-0-0-0-0-|--0-0-0-0-0-0-0-----0-0-0-0-0-0-0-|
--0-0-0-0-0-0-0-----0-0-0-0-0-0-0-|--0-0-0-0-0-0-0-----0-0-0-0-0-0-0-|


  S S S S S S S S S S S S S S S S    S S S S S S S S S S S S S S S S  
----------------------------------|----------------------------------|
----------------------------------|----------------------------------|
----------------------------------|----------------------------------|
--0-0-0-0-0-0-0-----0-0-0-0-0-0-0-|--0-0-0-0-0-0-0-----0-0-0-0-0-0-0-|
--0-0-0-0-0-0-0-----0-0-0-0-0-0-0-|--0-0-0-0-0-0-0-----0-0-0-0-0-0-0-|
--0-0-0-0-0-0-0-----0-0-0-0-0-0-0-|--0-0-0-0-0-0-0-----0-0-0-0-0-0-0-|


  H        E (022100@1)E (022100@1)Q    E (022100@1)E (022100@1)E (022100@1)E (022100@1)   H        E (022100@1)E (022100@1)Q    E (022100@1)E (022100@1)E (022100@1)E (022100@1) 
----------------------------------|----------------------------------|
--------------6----------6-----6--|----------------------------------|
--------------7----------7-----7--|--------------5----------5-----5--|
----------------------------------|--------------5----------5-----5--|
----------------------------------|--------------5----------5-----5--|
----------------------------------|----------------------------------|


  W                H           W                H         
----------------------------|----------------------------|
----------------------------|----------------------------|
----------------------------|----------------------------|
----------------------------|----------------------------|
----------------------------|----------------------------|
----------------------------|----------------------------|


  W                H           H        H        Q    E (022100@1)S S  
----------------------------|--------------------------------|
----------------------------|--------------------------------|
----------------------------|--------------------------------|
----------------------------|----------------------------0-0-|
----------------------------|----------------------------0-0-|
----------------------------|----------------------------0-0-|


  E (022100@1)S S S S S S S S S S S S E (022100@1)   S S S S S S E (022100@1)S S S S S S S S  
--------------------------------|---------------------------------|
--7--7-7-7-7-7-7-7-7-7-7-7-7-7--|--L-7-7-7-7-7-5--L-5-5-5-5-5-5-5-|
--6--6-6-6-6-6-6-6-6-6-6-6-6-7--|--L-7-7-7-7-7-5--L-5-5-5-5-5-5-5-|
--4--4-4-4-4-4-4-4-4-4-4-4-4-0--|--L-0-0-0-0-0-4--L-4-4-4-4-4-4-4-|
--4--4-4-4-4-4-4-4-4-4-4-4-4-0--|--L-0-0-0-0-0-3--L-3-3-3-3-3-3-3-|
--4--4-4-4-4-4-4-4-4-4-4-4-4-0--|--L-0-0-0-0-0--------------------|


  E (022100@1)S S S S S S S S S S S S E (022100@1)   S S S S S S E (022100@1)S S S S S S S S  
--------------------------------|---------------------------------|
--7--7-7-7-7-7-7-7-7-7-7-7-7-7--|--L-7-7-7-7-7-5--L-5-5-5-5-5-5-5-|
--6--6-6-6-6-6-6-6-6-6-6-6-6-7--|--L-7-7-7-7-7-5--L-5-5-5-5-5-5-5-|
--4--4-4-4-4-4-4-4-4-4-4-4-4-0--|--L-0-0-0-0-0-4--L-4-4-4-4-4-4-4-|
--4--4-4-4-4-4-4-4-4-4-4-4-4-0--|--L-0-0-0-0-0-3--L-3-3-3-3-3-3-3-|
--4--4-4-4-4-4-4-4-4-4-4-4-4-0--|--L-0-0-0-0-0--------------------|


  E (022100@1)S S S S S S S S S S S S E (022100@1)   S S S S S S E (022100@1)S S S S S S S S  
--------------------------------|---------------------------------|
--7--7-7-7-7-7-7-7-7-7-7-7-7-7--|--L-7-7-7-7-7-5--L-5-5-5-5-5-5-5-|
--6--6-6-6-6-6-6-6-6-6-6-6-6-7--|--L-7-7-7-7-7-5--L-5-5-5-5-5-5-5-|
--4--4-4-4-4-4-4-4-4-4-4-4-4-0--|--L-0-0-0-0-0-4--L-4-4-4-4-4-4-4-|
--4--4-4-4-4-4-4-4-4-4-4-4-4-0--|--L-0-0-0-0-0-3--L-3-3-3-3-3-3-3-|
--4--4-4-4-4-4-4-4-4-4-4-4-4-0--|--L-0-0-0-0-0--------------------|


  E (022100@1)S S S S S S S S S S S S E (022100@1)   E (022100@1)S S S S S S S S S S S S E (022100@1) 
--------------------------------|--------------------------------|
--7--7-7-7-7-7-7-7-7-7-7-7-7-4--|--L--4-4-4-4-4-4-4-4-4-4-4-4-3--|
--6--6-6-6-6-6-6-6-6-6-6-6-6-3--|--L--3-3-3-3-3-3-3-3-3-3-3-3-2--|
--4--4-4-4-4-4-4-4-4-4-4-4-4-1--|--L--1-1-1-1-1-1-1-1-1-1-1-1-0--|
--4--4-4-4-4-4-4-4-4-4-4-4-4-1--|--L--1-1-1-1-1-1-1-1-1-1-1-1-0--|
--4--4-4-4-4-4-4-4-4-4-4-4-4-1--|--L--1-1-1-1-1-1-1-1-1-1-1-1-0--|


  E (022100@1)S S S S S S S S S S S S S S    E (022100@1)S S S S S S S S S S S S E (022100@1) 
---------------------------------|--------------------------------|
--L--3-3-3-3-3-3-3-3-3-3-3-3-3-3-|--7--7-7-7-7-7-7-7-7-7-7-7-7-7--|
--L--2-2-2-2-2-2-2-2-2-2-2-2-2-2-|--6--6-6-6-6-6-6-6-6-6-6-6-6-7--|
--L--0-0-0-0-0-0-0-0-0-0-0-0-0-0-|--4--4-4-4-4-4-4-4-4-4-4-4-4-0--|
--L--0-0-0-0-0-0-0-0-0-0-0-0-0-0-|--4--4-4-4-4-4-4-4-4-4-4-4-4-0--|
--L--0-0-0-0-0-0-0-0-0-0-0-0-0-0-|--4--4-4-4-4-4-4-4-4-4-4-4-4-0--|


  S S S S S S E (022100@1)S S S S S S S S    E (022100@1)S S S S S S S S S S S S E (022100@1) 
---------------------------------|--------------------------------|
--L-7-7-7-7-7-5--L-5-5-5-5-5-5-5-|--7--7-7-7-7-7-7-7-7-7-7-7-7-7--|
--L-7-7-7-7-7-5--L-5-5-5-5-5-5-5-|--6--6-6-6-6-6-6-6-6-6-6-6-6-7--|
--L-0-0-0-0-0-4--L-4-4-4-4-4-4-4-|--4--4-4-4-4-4-4-4-4-4-4-4-4-0--|
--L-0-0-0-0-0-3--L-3-3-3-3-3-3-3-|--4--4-4-4-4-4-4-4-4-4-4-4-4-0--|
--L-0-0-0-0-0--------------------|--4--4-4-4-4-4-4-4-4-4-4-4-4-0--|


  S S S S S S E (022100@1)S S S S S S S S    E (022100@1)S S S S S S S S S S S S E (022100@1) 
---------------------------------|--------------------------------|
--L-7-7-7-7-7-5--L-5-5-5-5-5-5-5-|--7--7-7-7-7-7-7-7-7-7-7-7-7-7--|
--L-7-7-7-7-7-5--L-5-5-5-5-5-5-5-|--6--6-6-6-6-6-6-6-6-6-6-6-6-7--|
--L-0-0-0-0-0-4--L-4-4-4-4-4-4-4-|--4--4-4-4-4-4-4-4-4-4-4-4-4-0--|
--L-0-0-0-0-0-3--L-3-3-3-3-3-3-3-|--4--4-4-4-4-4-4-4-4-4-4-4-4-0--|
--L-0-0-0-0-0--------------------|--4--4-4-4-4-4-4-4-4-4-4-4-4-0--|


  S S S S S S E (022100@1)S S S S S S S S    E (022100@1)S S S S S S S S S S S S E (022100@1) 
---------------------------------|--------------------------------|
--L-7-7-7-7-7-5--L-5-5-5-5-5-5-5-|--7--7-7-7-7-7-7-7-7-7-7-7-7-4--|
--L-7-7-7-7-7-5--L-5-5-5-5-5-5-5-|--6--6-6-6-6-6-6-6-6-6-6-6-6-3--|
--L-0-0-0-0-0-4--L-4-4-4-4-4-4-4-|--4--4-4-4-4-4-4-4-4-4-4-4-4-1--|
--L-0-0-0-0-0-3--L-3-3-3-3-3-3-3-|--4--4-4-4-4-4-4-4-4-4-4-4-4-1--|
--L-0-0-0-0-0--------------------|--4--4-4-4-4-4-4-4-4-4-4-4-4-1--|


  E (022100@1)S S S S S S S S S S S S E (022100@1)   E (022100@1)S S S S S S S S S S S S E (022100@1) 
--------------------------------|--------------------------------|
--L--4-4-4-4-4-4-4-4-4-4-4-4-3--|--L--3-3-3-3-3-3-3-3-3-3-3-3-4--|
--L--3-3-3-3-3-3-3-3-3-3-3-3-2--|--L--2-2-2-2-2-2-2-2-2-2-2-2-3--|
--L--1-1-1-1-1-1-1-1-1-1-1-1-0--|--L--0-0-0-0-0-0-0-0-0-0-0-0-1--|
--L--1-1-1-1-1-1-1-1-1-1-1-1-0--|--L--0-0-0-0-0-0-0-0-0-0-0-0-1--|
--L--1-1-1-1-1-1-1-1-1-1-1-1-0--|--L--0-0-0-0-0-0-0-0-0-0-0-0-1--|


  E (022100@1)S S S S S S S S S S S S E (022100@1)   E (022100@1)S S S S S S S S S S S S S S  
--------------------------------|---------------------------------|
--L--4-4-4-4-4-4-4-4-4-4-4-4-3--|--L--3-3-3-3-3-3-3-3-3-3-3-3-3-3-|
--L--3-3-3-3-3-3-3-3-3-3-3-3-2--|--L--2-2-2-2-2-2-2-2-2-2-2-2-2-2-|
--L--1-1-1-1-1-1-1-1-1-1-1-1-0--|--L--0-0-0-0-0-0-0-0-0-0-0-0-0-0-|
--L--1-1-1-1-1-1-1-1-1-1-1-1-0--|--L--0-0-0-0-0-0-0-0-0-0-0-0-0-0-|
--L--1-1-1-1-1-1-1-1-1-1-1-1-0--|--L--0-0-0-0-0-0-0-0-0-0-0-0-0-0-|


  S S S S S S S S S S S S S S S S    S S S S S S S S S S S S S S S S  
----------------------------------|----------------------------------|
----------------------------------|----------------------------------|
----------------------------------|----------------------------------|
--0-0-0-0-0-0-0-----0-0-0-0-0-0-0-|--0-0-0-0-0-0-0-----0-0-0-0-0-0-0-|
--0-0-0-0-0-0-0-----0-0-0-0-0-0-0-|--0-0-0-0-0-0-0-----0-0-0-0-0-0-0-|
--0-0-0-0-0-0-0-----0-0-0-0-0-0-0-|--0-0-0-0-0-0-0-----0-0-0-0-0-0-0-|


  S S S S S S S S S S S S S S S S    S S S S S S S S S S S S S S S S  
----------------------------------|----------------------------------|
----------------------------------|----------------------------------|
----------------------------------|----------------------------------|
--0-0-0-0-0-0-0-----0-0-0-0-0-0-0-|--0-0-0-0-0-0-0-----0-0-0-0-0-0-0-|
--0-0-0-0-0-0-0-----0-0-0-0-0-0-0-|--0-0-0-0-0-0-0-----0-0-0-0-0-0-0-|
--0-0-0-0-0-0-0-----0-0-0-0-0-0-0-|--0-0-0-0-0-0-0-----0-0-0-0-0-0-0-|


  S S S S S S S S S S S S S S S S    S S S S S S S S S S S S S S S S   
----------------------------------|----------------------------------||
----------------------------------|----------------------------------||
----------------------------------|----------------------------------||
--0-0-0-0-0-0-0-----0-0-0-0-0-0-0-|--0-0-0-0-0-0-0-----0-0-0-0-0-0-0-||
--0-0-0-0-0-0-0-----0-0-0-0-0-0-0-|--0-0-0-0-0-0-0-----0-0-0-0-0-0-0-||
--0-0-0-0-0-0-0-----0-0-0-0-0-0-0-|--0-0-0-0-0-0-0-----0-0-0-0-0-0-0-||

******************************************
******************************************
******************************************

John Connolly

  H        E (022100@1)E (022100@1)Q    E (022100@1) E (022100@1)E (022100@1) E (022100@1)   H        E (022100@1)E (022100@1)Q    E (022100@1)E (022100@1)E (022100@1)E (022100@1) 
C#||------------------------------------|----------------------------------|
G#||------------------------------------|----------------------------------|
E ||--------------7----------10-----10--|-------------------------8-----8--|
B ||------------------------------------|--------------0----------5-----5--|
F#||--------------5---------------------|--------------0----------5-----5--|
B ||------------------------------------|--------------0-------------------|


  H        E (022100@1)E (022100@1)Q    E (022100@1) E (022100@1)E (022100@1) E (022100@1)   H        E (022100@1)E (022100@1)Q    E (022100@1)E (022100@1)E (022100@1)E (022100@1) 
------------------------------------|----------------------------------|
------------------------------------|----------------------------------|
--------------7----------10-----10--|-------------------------8-----8--|
------------------------------------|--------------0----------5-----5--|
--------------5---------------------|--------------0----------5-----5--|
------------------------------------|--------------0-------------------|


  S S S S S S S S S S E (022100@1)S S S S S S E (022100@1)S S E (022100@1) 
-----------------------------------------------|
----------------------6--------------6------6--|
----------------------7--------------7------7--|
-----------------------------------------------|
----------------------5--------------5------5--|
--6-6-6-6-6-6-6-6-6-6----6-6-6-6-6-6----6-6----|


  S S S S S S S S S S E (022100@1)S S S S S S E (022100@1)S S E (022100@1) 
-----------------------------------------------|
-----------------------------------------------|
----------------------5--------------5------5--|
----------------------5--------------5------5--|
----------------------5--------------5------5--|
--4-4-4-4-4-4-4-4-4-4----4-4-4-4-4-4----4-4----|


  S S S S S S S S S S E (022100@1)S S S S S S E (022100@1)S S E (022100@1) 
-----------------------------------------------|
----------------------6--------------6------6--|
----------------------7--------------7------7--|
-----------------------------------------------|
----------------------5--------------5------5--|
--6-6-6-6-6-6-6-6-6-6----6-6-6-6-6-6----6-6----|


  S S S S S S S S S S E (022100@1)S S S S S S E (022100@1)S S E (022100@1)   E.  S S E (022100@1)S E (022100@1)E (022100@1) 
-----------------------------------------------|---------------------|
-----------------------------------------------|--1------------------|
----------------------5--------------5------5--|--1------------------|
----------------------5--------------5------5--|--3------------------|
----------------------5--------------5------5--|--3---0---0--0-0--0--|
--4-4-4-4-4-4-4-4-4-4----4-4-4-4-4-4----4-4----|------0-L-0--0-0--0--|


  E.  S S E (022100@1)S S S E (022100@1)   E.  S S E (022100@1)S E (022100@1)E (022100@1)   E.  S S E (022100@1)S S S E (022100@1) 
----------------------|---------------------|----------------------|
--1-------------------|--1------------------|--1-------------------|
--1-------------------|--1------------------|--1-------------------|
--3-------------------|--3------------------|--3-------------------|
--3---0---0--0-0-0-0--|--3---0---0--0-0--0--|--3---0---0--0-0-0-0--|
------0-L-0--0-0-0-0--|------0-L-0--0-0--0--|------0-L-0--0-0-0-0--|


  H        Q       E (022100@1)S S S S S S S S S S S S E (022100@1) 
----------------|--------------------------------|
----------------|--7--7-7-7-7-7-7-7-7-7-7-7-7-7--|
----------------|--6--6-6-6-6-6-6-6-6-6-6-6-6-7--|
----------------|--4--4-4-4-4-4-4-4-4-4-4-4-4-0--|
----------------|--4--4-4-4-4-4-4-4-4-4-4-4-4-0--|
----------------|--4--4-4-4-4-4-4-4-4-4-4-4-4-0--|


  S S S S S S E (022100@1)S S S S S S S S    E (022100@1)S S S S S S S S S S S S E (022100@1) 
---------------------------------|--------------------------------|
--L-7-7-7-7-7-5--L-5-5-5-5-5-5-5-|--7--7-7-7-7-7-7-7-7-7-7-7-7-7--|
--L-7-7-7-7-7-5--L-5-5-5-5-5-5-5-|--6--6-6-6-6-6-6-6-6-6-6-6-6-7--|
--L-0-0-0-0-0-4--L-4-4-4-4-4-4-4-|--4--4-4-4-4-4-4-4-4-4-4-4-4-0--|
--L-0-0-0-0-0-3--L-3-3-3-3-3-3-3-|--4--4-4-4-4-4-4-4-4-4-4-4-4-0--|
--L-0-0-0-0-0--------------------|--4--4-4-4-4-4-4-4-4-4-4-4-4-0--|


  S S S S S S E (022100@1)S S S S S S S S    E (022100@1)S S S S S S S S S S S S E (022100@1) 
---------------------------------|--------------------------------|
--L-7-7-7-7-7-5--L-5-5-5-5-5-5-5-|--7--7-7-7-7-7-7-7-7-7-7-7-7-7--|
--L-7-7-7-7-7-5--L-5-5-5-5-5-5-5-|--6--6-6-6-6-6-6-6-6-6-6-6-6-7--|
--L-0-0-0-0-0-4--L-4-4-4-4-4-4-4-|--4--4-4-4-4-4-4-4-4-4-4-4-4-0--|
--L-0-0-0-0-0-3--L-3-3-3-3-3-3-3-|--4--4-4-4-4-4-4-4-4-4-4-4-4-0--|
--L-0-0-0-0-0--------------------|--4--4-4-4-4-4-4-4-4-4-4-4-4-0--|


  S S S S S S E (022100@1)S S S S S S S S    E (022100@1)S S S S S S S S S S S S E (022100@1) 
---------------------------------|--------------------------------|
--L-7-7-7-7-7-5--L-5-5-5-5-5-5-5-|--7--7-7-7-7-7-7-7-7-7-7-7-7-4--|
--L-7-7-7-7-7-5--L-5-5-5-5-5-5-5-|--6--6-6-6-6-6-6-6-6-6-6-6-6-3--|
--L-0-0-0-0-0-4--L-4-4-4-4-4-4-4-|--4--4-4-4-4-4-4-4-4-4-4-4-4-1--|
--L-0-0-0-0-0-3--L-3-3-3-3-3-3-3-|--4--4-4-4-4-4-4-4-4-4-4-4-4-1--|
--L-0-0-0-0-0--------------------|--4--4-4-4-4-4-4-4-4-4-4-4-4-1--|


  E (022100@1)S S S S S S S S S S S S E (022100@1)   E (022100@1)S S S S S S S S S S S S S S  
--------------------------------|---------------------------------|
--L--4-4-4-4-4-4-4-4-4-4-4-4-3--|--L--3-3-3-3-3-3-3-3-3-3-3-3-3-3-|
--L--3-3-3-3-3-3-3-3-3-3-3-3-2--|--L--2-2-2-2-2-2-2-2-2-2-2-2-2-2-|
--L--1-1-1-1-1-1-1-1-1-1-1-1-0--|--L--0-0-0-0-0-0-0-0-0-0-0-0-0-0-|
--L--1-1-1-1-1-1-1-1-1-1-1-1-0--|--L--0-0-0-0-0-0-0-0-0-0-0-0-0-0-|
--L--1-1-1-1-1-1-1-1-1-1-1-1-0--|--L--0-0-0-0-0-0-0-0-0-0-0-0-0-0-|


  H        E (022100@1)E (022100@1)Q    E (022100@1)E (022100@1)E (022100@1)E (022100@1)   H        E (022100@1)E (022100@1)Q    E (022100@1)E (022100@1)E (022100@1)E (022100@1) 
----------------------------------|----------------------------------|
----------------------------------|----------------------------------|
--------------5----------5-----5--|--------------5----------5-----5--|
--------------5----------5-----5--|--------------5----------5-----5--|
--------------5----------5-----5--|--------------5----------5-----5--|
----------------------------------|----------------------------------|


  S S S S S S S S S S E (022100@1)S S S S S S E (022100@1)S S E (022100@1) 
-----------------------------------------------|
----------------------6--------------6------6--|
----------------------7--------------7------7--|
-----------------------------------------------|
----------------------5--------------5------5--|
--6-6-6-6-6-6-6-6-6-6----6-6-6-6-6-6----6-6----|


  S S S S S S S S S S E (022100@1)S S S S S S E (022100@1)S S E (022100@1) 
-----------------------------------------------|
-----------------------------------------------|
----------------------5--------------5------5--|
----------------------5--------------5------5--|
----------------------5--------------5------5--|
--4-4-4-4-4-4-4-4-4-4----4-4-4-4-4-4----4-4----|


  S S S S S S S S S S E (022100@1)S S S S S S E (022100@1)S S E (022100@1) 
-----------------------------------------------|
----------------------6--------------6------6--|
----------------------7--------------7------7--|
-----------------------------------------------|
----------------------5--------------5------5--|
--6-6-6-6-6-6-6-6-6-6----6-6-6-6-6-6----6-6----|


  S S S S S S S S S S E (022100@1)S S S S S S E (022100@1)S S E (022100@1)   E.  S S E (022100@1)S E (022100@1)E (022100@1) 
-----------------------------------------------|---------------------|
-----------------------------------------------|--1------------------|
----------------------5--------------5------5--|--1------------------|
----------------------5--------------5------5--|--3------------------|
----------------------5--------------5------5--|--3---0---0--0-0--0--|
--4-4-4-4-4-4-4-4-4-4----4-4-4-4-4-4----4-4----|------0-L-0--0-0--0--|


  E.  S S E (022100@1)S S S E (022100@1)   E.  S S E (022100@1)S E (022100@1)E (022100@1)   E.  S S E (022100@1)S S S E (022100@1) 
----------------------|---------------------|----------------------|
--1-------------------|--1------------------|--1-------------------|
--1-------------------|--1------------------|--1-------------------|
--3-------------------|--3------------------|--3-------------------|
--3---0---0--0-0-0-0--|--3---0---0--0-0--0--|--3---0---0--0-0-0-0--|
------0-L-0--0-0-0-0--|------0-L-0--0-0--0--|------0-L-0--0-0-0-0--|


  H.              E (022100@1)S S S S S S S S S S S S E (022100@1) 
---------------|--------------------------------|
---------------|--7--7-7-7-7-7-7-7-7-7-7-7-7-7--|
---------------|--6--6-6-6-6-6-6-6-6-6-6-6-6-7--|
---------------|--4--4-4-4-4-4-4-4-4-4-4-4-4-0--|
---------------|--4--4-4-4-4-4-4-4-4-4-4-4-4-0--|
---------------|--4--4-4-4-4-4-4-4-4-4-4-4-4-0--|


  S S S S S S E (022100@1)S S S S S S S S    E (022100@1)S S S S S S S S S S S S E (022100@1) 
---------------------------------|--------------------------------|
--L-7-7-7-7-7-5--L-5-5-5-5-5-5-5-|--7--7-7-7-7-7-7-7-7-7-7-7-7-7--|
--L-7-7-7-7-7-5--L-5-5-5-5-5-5-5-|--6--6-6-6-6-6-6-6-6-6-6-6-6-7--|
--L-0-0-0-0-0-4--L-4-4-4-4-4-4-4-|--4--4-4-4-4-4-4-4-4-4-4-4-4-0--|
--L-0-0-0-0-0-3--L-3-3-3-3-3-3-3-|--4--4-4-4-4-4-4-4-4-4-4-4-4-0--|
--L-0-0-0-0-0--------------------|--4--4-4-4-4-4-4-4-4-4-4-4-4-0--|


  S S S S S S E (022100@1)S S S S S S S S    E (022100@1)S S S S S S S S S S S S E (022100@1) 
---------------------------------|--------------------------------|
--L-7-7-7-7-7-5--L-5-5-5-5-5-5-5-|--7--7-7-7-7-7-7-7-7-7-7-7-7-7--|
--L-7-7-7-7-7-5--L-5-5-5-5-5-5-5-|--6--6-6-6-6-6-6-6-6-6-6-6-6-7--|
--L-0-0-0-0-0-4--L-4-4-4-4-4-4-4-|--4--4-4-4-4-4-4-4-4-4-4-4-4-0--|
--L-0-0-0-0-0-3--L-3-3-3-3-3-3-3-|--4--4-4-4-4-4-4-4-4-4-4-4-4-0--|
--L-0-0-0-0-0--------------------|--4--4-4-4-4-4-4-4-4-4-4-4-4-0--|


  S S S S S S E (022100@1)S S S S S S S S    E (022100@1)S S S S S S S S S S S S E (022100@1) 
---------------------------------|--------------------------------|
--L-7-7-7-7-7-5--L-5-5-5-5-5-5-5-|--7--7-7-7-7-7-7-7-7-7-7-7-7-4--|
--L-7-7-7-7-7-5--L-5-5-5-5-5-5-5-|--6--6-6-6-6-6-6-6-6-6-6-6-6-3--|
--L-0-0-0-0-0-4--L-4-4-4-4-4-4-4-|--4--4-4-4-4-4-4-4-4-4-4-4-4-1--|
--L-0-0-0-0-0-3--L-3-3-3-3-3-3-3-|--4--4-4-4-4-4-4-4-4-4-4-4-4-1--|
--L-0-0-0-0-0--------------------|--4--4-4-4-4-4-4-4-4-4-4-4-4-1--|


  E (022100@1)S S S S S S S S S S S S E (022100@1)   E (022100@1)S S S S S S S S S S S S E (022100@1) 
--------------------------------|--------------------------------|
--L--4-4-4-4-4-4-4-4-4-4-4-4-3--|--L--3-3-3-3-3-3-3-3-3-3-3-3-4--|
--L--3-3-3-3-3-3-3-3-3-3-3-3-2--|--L--2-2-2-2-2-2-2-2-2-2-2-2-3--|
--L--1-1-1-1-1-1-1-1-1-1-1-1-0--|--L--0-0-0-0-0-0-0-0-0-0-0-0-1--|
--L--1-1-1-1-1-1-1-1-1-1-1-1-0--|--L--0-0-0-0-0-0-0-0-0-0-0-0-1--|
--L--1-1-1-1-1-1-1-1-1-1-1-1-0--|--L--0-0-0-0-0-0-0-0-0-0-0-0-1--|


  E (022100@1)S S S S S S S S S S S S E (022100@1)   E (022100@1)S S S S S S S S S S S S S S  
--------------------------------|---------------------------------|
--L--4-4-4-4-4-4-4-4-4-4-4-4-3--|--L--3-3-3-3-3-3-3-3-3-3-3-3-3-3-|
--L--3-3-3-3-3-3-3-3-3-3-3-3-2--|--L--2-2-2-2-2-2-2-2-2-2-2-2-2-2-|
--L--1-1-1-1-1-1-1-1-1-1-1-1-0--|--L--0-0-0-0-0-0-0-0-0-0-0-0-0-0-|
--L--1-1-1-1-1-1-1-1-1-1-1-1-0--|--L--0-0-0-0-0-0-0-0-0-0-0-0-0-0-|
--L--1-1-1-1-1-1-1-1-1-1-1-1-0--|--L--0-0-0-0-0-0-0-0-0-0-0-0-0-0-|


  W                   W                   S S S S S S S S S S S S S S S S  
-------------------|-------------------|----------------------------------|
-------------------|-------------------|----------------------------------|
-------------------|-------------------|----------------------------------|
-------------------|-------------------|--2-2-2-2-2-2-2-2---2-2-2-2-2-2-2-|
-------------------|-------------------|--2-2-2-2-2-2-2-2---2-2-2-2-2-2-2-|
-------------------|-------------------|--2-2-2-2-2-2-2-2---2-2-2-2-2-2-2-|


  S S S S S S S S S S S S S S S S    W                   W                 
----------------------------------|-------------------|-------------------|
----------------------------------|-------------------|-------------------|
----------------------------------|-------------------|-------------------|
--2-2-2-2-2-2-2-2---2-2-2-2-2-2-2-|-------------------|-------------------|
--2-2-2-2-2-2-2-2---2-2-2-2-2-2-2-|-------------------|-------------------|
--2-2-2-2-2-2-2-2---2-2-2-2-2-2-2-|-------------------|-------------------|


  S S S S S S S S S S S S S S S S    S S S S S S S S S S S S S S S S  
----------------------------------|----------------------------------|
----------------------------------|----------------------------------|
----------------------------------|----------------------------------|
--2-2-2-2-2-2-2-2---2-2-2-2-2-2-2-|--2-2-2-2-2-2-2-2---2-2-2-2-2-2-2-|
--2-2-2-2-2-2-2-2---2-2-2-2-2-2-2-|--2-2-2-2-2-2-2-2---2-2-2-2-2-2-2-|
--2-2-2-2-2-2-2-2---2-2-2-2-2-2-2-|--2-2-2-2-2-2-2-2---2-2-2-2-2-2-2-|


  S S S S S S S S S S S S S S S S    S S S S S S S S S S S S S S S S  
----------------------------------|----------------------------------|
----------------------------------|----------------------------------|
----------------------------------|----------------------------------|
--0-0-0-0-0-0-0-----0-0-0-0-0-0-0-|--0-0-0-0-0-0-0-----0-0-0-0-0-0-0-|
--0-0-0-0-0-0-0-----0-0-0-0-0-0-0-|--0-0-0-0-0-0-0-----0-0-0-0-0-0-0-|
--0-0-0-0-0-0-0-----0-0-0-0-0-0-0-|--0-0-0-0-0-0-0-----0-0-0-0-0-0-0-|


  S S S S S S S S S S S S S S S S    S S S S S S S S S S S S S S S S  
----------------------------------|----------------------------------|
----------------------------------|----------------------------------|
----------------------------------|----------------------------------|
--0-0-0-0-0-0-0-----0-0-0-0-0-0-0-|--0-0-0-0-0-0-0-----0-0-0-0-0-0-0-|
--0-0-0-0-0-0-0-----0-0-0-0-0-0-0-|--0-0-0-0-0-0-0-----0-0-0-0-0-0-0-|
--0-0-0-0-0-0-0-----0-0-0-0-0-0-0-|--0-0-0-0-0-0-0-----0-0-0-0-0-0-0-|


  H        E (022100@1)E (022100@1)Q    E (022100@1)E (022100@1)E (022100@1)E (022100@1)   H        E (022100@1)E (022100@1)Q    E (022100@1)E (022100@1)E (022100@1)E (022100@1) 
----------------------------------|----------------------------------|
----------------------------------|----------------------------------|
--------------5----------5-----5--|--------------5----------5-----5--|
--------------5----------5-----5--|--------------5----------5-----5--|
--------------5----------5-----5--|--------------5----------5-----5--|
----------------------------------|----------------------------------|


  W                H           W                H         
----------------------------|----------------------------|
----------------------------|----------------------------|
----------------------------|----------------------------|
----------------------------|----------------------------|
----------------------------|----------------------------|
----------------------------|----------------------------|


  W                H           H        H        Q    E (022100@1)S S  
----------------------------|--------------------------------|
----------------------------|--------------------------------|
----------------------------|--------------------------------|
----------------------------|----------------------------0-0-|
----------------------------|----------------------------0-0-|
----------------------------|----------------------------0-0-|


  E (022100@1)S S S S S S S S S S S S E (022100@1)   S S S S S S E (022100@1)S S S S S S S S  
--------------------------------|---------------------------------|
--7--7-7-7-7-7-7-7-7-7-7-7-7-7--|--L-7-7-7-7-7-5--L-5-5-5-5-5-5-5-|
--6--6-6-6-6-6-6-6-6-6-6-6-6-7--|--L-7-7-7-7-7-5--L-5-5-5-5-5-5-5-|
--4--4-4-4-4-4-4-4-4-4-4-4-4-0--|--L-0-0-0-0-0-4--L-4-4-4-4-4-4-4-|
--4--4-4-4-4-4-4-4-4-4-4-4-4-0--|--L-0-0-0-0-0-3--L-3-3-3-3-3-3-3-|
--4--4-4-4-4-4-4-4-4-4-4-4-4-0--|--L-0-0-0-0-0--------------------|


  E (022100@1)S S S S S S S S S S S S E (022100@1)   S S S S S S E (022100@1)S S S S S S S S  
--------------------------------|---------------------------------|
--7--7-7-7-7-7-7-7-7-7-7-7-7-7--|--L-7-7-7-7-7-5--L-5-5-5-5-5-5-5-|
--6--6-6-6-6-6-6-6-6-6-6-6-6-7--|--L-7-7-7-7-7-5--L-5-5-5-5-5-5-5-|
--4--4-4-4-4-4-4-4-4-4-4-4-4-0--|--L-0-0-0-0-0-4--L-4-4-4-4-4-4-4-|
--4--4-4-4-4-4-4-4-4-4-4-4-4-0--|--L-0-0-0-0-0-3--L-3-3-3-3-3-3-3-|
--4--4-4-4-4-4-4-4-4-4-4-4-4-0--|--L-0-0-0-0-0--------------------|


  E (022100@1)S S S S S S S S S S S S E (022100@1)   S S S S S S E (022100@1)S S S S S S S S  
--------------------------------|---------------------------------|
--7--7-7-7-7-7-7-7-7-7-7-7-7-7--|--L-7-7-7-7-7-5--L-5-5-5-5-5-5-5-|
--6--6-6-6-6-6-6-6-6-6-6-6-6-7--|--L-7-7-7-7-7-5--L-5-5-5-5-5-5-5-|
--4--4-4-4-4-4-4-4-4-4-4-4-4-0--|--L-0-0-0-0-0-4--L-4-4-4-4-4-4-4-|
--4--4-4-4-4-4-4-4-4-4-4-4-4-0--|--L-0-0-0-0-0-3--L-3-3-3-3-3-3-3-|
--4--4-4-4-4-4-4-4-4-4-4-4-4-0--|--L-0-0-0-0-0--------------------|


  E (022100@1)S S S S S S S S S S S S E (022100@1)   E (022100@1)S S S S S S S S S S S S E (022100@1) 
--------------------------------|--------------------------------|
--7--7-7-7-7-7-7-7-7-7-7-7-7-4--|--L--4-4-4-4-4-4-4-4-4-4-4-4-3--|
--6--6-6-6-6-6-6-6-6-6-6-6-6-3--|--L--3-3-3-3-3-3-3-3-3-3-3-3-2--|
--4--4-4-4-4-4-4-4-4-4-4-4-4-1--|--L--1-1-1-1-1-1-1-1-1-1-1-1-0--|
--4--4-4-4-4-4-4-4-4-4-4-4-4-1--|--L--1-1-1-1-1-1-1-1-1-1-1-1-0--|
--4--4-4-4-4-4-4-4-4-4-4-4-4-1--|--L--1-1-1-1-1-1-1-1-1-1-1-1-0--|


  E (022100@1)S S S S S S S S S S S S S S    E (022100@1)S S S S S S S S S S S S E (022100@1) 
---------------------------------|--------------------------------|
--L--3-3-3-3-3-3-3-3-3-3-3-3-3-3-|--7--7-7-7-7-7-7-7-7-7-7-7-7-7--|
--L--2-2-2-2-2-2-2-2-2-2-2-2-2-2-|--6--6-6-6-6-6-6-6-6-6-6-6-6-7--|
--L--0-0-0-0-0-0-0-0-0-0-0-0-0-0-|--4--4-4-4-4-4-4-4-4-4-4-4-4-0--|
--L--0-0-0-0-0-0-0-0-0-0-0-0-0-0-|--4--4-4-4-4-4-4-4-4-4-4-4-4-0--|
--L--0-0-0-0-0-0-0-0-0-0-0-0-0-0-|--4--4-4-4-4-4-4-4-4-4-4-4-4-0--|


  S S S S S S E (022100@1)S S S S S S S S    E (022100@1)S S S S S S S S S S S S E (022100@1) 
---------------------------------|--------------------------------|
--L-7-7-7-7-7-5--L-5-5-5-5-5-5-5-|--7--7-7-7-7-7-7-7-7-7-7-7-7-7--|
--L-7-7-7-7-7-5--L-5-5-5-5-5-5-5-|--6--6-6-6-6-6-6-6-6-6-6-6-6-7--|
--L-0-0-0-0-0-4--L-4-4-4-4-4-4-4-|--4--4-4-4-4-4-4-4-4-4-4-4-4-0--|
--L-0-0-0-0-0-3--L-3-3-3-3-3-3-3-|--4--4-4-4-4-4-4-4-4-4-4-4-4-0--|
--L-0-0-0-0-0--------------------|--4--4-4-4-4-4-4-4-4-4-4-4-4-0--|


  S S S S S S E (022100@1)S S S S S S S S    E (022100@1)S S S S S S S S S S S S E (022100@1) 
---------------------------------|--------------------------------|
--L-7-7-7-7-7-5--L-5-5-5-5-5-5-5-|--7--7-7-7-7-7-7-7-7-7-7-7-7-7--|
--L-7-7-7-7-7-5--L-5-5-5-5-5-5-5-|--6--6-6-6-6-6-6-6-6-6-6-6-6-7--|
--L-0-0-0-0-0-4--L-4-4-4-4-4-4-4-|--4--4-4-4-4-4-4-4-4-4-4-4-4-0--|
--L-0-0-0-0-0-3--L-3-3-3-3-3-3-3-|--4--4-4-4-4-4-4-4-4-4-4-4-4-0--|
--L-0-0-0-0-0--------------------|--4--4-4-4-4-4-4-4-4-4-4-4-4-0--|


  S S S S S S E (022100@1)S S S S S S S S    E (022100@1)S S S S S S S S S S S S E (022100@1) 
---------------------------------|--------------------------------|
--L-7-7-7-7-7-5--L-5-5-5-5-5-5-5-|--7--7-7-7-7-7-7-7-7-7-7-7-7-4--|
--L-7-7-7-7-7-5--L-5-5-5-5-5-5-5-|--6--6-6-6-6-6-6-6-6-6-6-6-6-3--|
--L-0-0-0-0-0-4--L-4-4-4-4-4-4-4-|--4--4-4-4-4-4-4-4-4-4-4-4-4-1--|
--L-0-0-0-0-0-3--L-3-3-3-3-3-3-3-|--4--4-4-4-4-4-4-4-4-4-4-4-4-1--|
--L-0-0-0-0-0--------------------|--4--4-4-4-4-4-4-4-4-4-4-4-4-1--|


  E (022100@1)S S S S S S S S S S S S E (022100@1)   E (022100@1)S S S S S S S S S S S S E (022100@1) 
--------------------------------|--------------------------------|
--L--4-4-4-4-4-4-4-4-4-4-4-4-3--|--L--3-3-3-3-3-3-3-3-3-3-3-3-4--|
--L--3-3-3-3-3-3-3-3-3-3-3-3-2--|--L--2-2-2-2-2-2-2-2-2-2-2-2-3--|
--L--1-1-1-1-1-1-1-1-1-1-1-1-0--|--L--0-0-0-0-0-0-0-0-0-0-0-0-1--|
--L--1-1-1-1-1-1-1-1-1-1-1-1-0--|--L--0-0-0-0-0-0-0-0-0-0-0-0-1--|
--L--1-1-1-1-1-1-1-1-1-1-1-1-0--|--L--0-0-0-0-0-0-0-0-0-0-0-0-1--|


  E (022100@1)S S S S S S S S S S S S E (022100@1)   E (022100@1)S S S S S S S S S S S S S S  
--------------------------------|---------------------------------|
--L--4-4-4-4-4-4-4-4-4-4-4-4-3--|--L--3-3-3-3-3-3-3-3-3-3-3-3-3-3-|
--L--3-3-3-3-3-3-3-3-3-3-3-3-2--|--L--2-2-2-2-2-2-2-2-2-2-2-2-2-2-|
--L--1-1-1-1-1-1-1-1-1-1-1-1-0--|--L--0-0-0-0-0-0-0-0-0-0-0-0-0-0-|
--L--1-1-1-1-1-1-1-1-1-1-1-1-0--|--L--0-0-0-0-0-0-0-0-0-0-0-0-0-0-|
--L--1-1-1-1-1-1-1-1-1-1-1-1-0--|--L--0-0-0-0-0-0-0-0-0-0-0-0-0-0-|


  S S S S S S S S S S S S S S S S    S S S S S S S S S S S S S S S S  
----------------------------------|----------------------------------|
----------------------------------|----------------------------------|
----------------------------------|----------------------------------|
--0-0-0-0-0-0-0-----0-0-0-0-0-0-0-|--0-0-0-0-0-0-0-----0-0-0-0-0-0-0-|
--0-0-0-0-0-0-0-----0-0-0-0-0-0-0-|--0-0-0-0-0-0-0-----0-0-0-0-0-0-0-|
--0-0-0-0-0-0-0-----0-0-0-0-0-0-0-|--0-0-0-0-0-0-0-----0-0-0-0-0-0-0-|


  S S S S S S S S S S S S S S S S    S S S S S S S S S S S S S S S S  
----------------------------------|----------------------------------|
----------------------------------|----------------------------------|
----------------------------------|----------------------------------|
--0-0-0-0-0-0-0-----0-0-0-0-0-0-0-|--0-0-0-0-0-0-0-----0-0-0-0-0-0-0-|
--0-0-0-0-0-0-0-----0-0-0-0-0-0-0-|--0-0-0-0-0-0-0-----0-0-0-0-0-0-0-|
--0-0-0-0-0-0-0-----0-0-0-0-0-0-0-|--0-0-0-0-0-0-0-----0-0-0-0-0-0-0-|


  S S S S S S S S S S S S S S S S    S S S S S S S S S S S S S S S S   
----------------------------------|----------------------------------||
----------------------------------|----------------------------------||
----------------------------------|----------------------------------||
--0-0-0-0-0-0-0-----0-0-0-0-0-0-0-|--0-0-0-0-0-0-0-----0-0-0-0-0-0-0-||
--0-0-0-0-0-0-0-----0-0-0-0-0-0-0-|--0-0-0-0-0-0-0-----0-0-0-0-0-0-0-||
--0-0-0-0-0-0-0-----0-0-0-0-0-0-0-|--0-0-0-0-0-0-0-----0-0-0-0-0-0-0-||




Duration Legend
---------------
W - whole
H - half
Q - quarter
E - 8th
S - 16th
T - 32nd
X - 64th
. - note dotted
|-n-|  - n-tuplets


Tablature Legend
----------------
L - tied note
x - dead note
g - grace note
(n) - ghost note
> - accentuded note
NH - natural harmonic
AH - artificial harmonic
TH - tapped harmonic
SH - semi harmonic
PH - pitch harmonic
h - hammer on
p - pull off
b - bend
br - bendRelease
pb - preBend
pbr - preBendRelease
brb - bendReleaseBend
n/ - tremolo bar dip
n - tremolo bar dive
-/n - tremolo bar Release up
/n - tremolo bar inverted dip
/n - tremolo bar return
-n - tremolo bar Release down
S - shift slide
s - legato slide
/ -  slide into from below or out of upwards
 -  slide into from above or out of downwards
~ - vibrato
W - wide vibrato
tr - trill
TP - tremolo picking
T - tapping
S - slap
P - pop
< - fade in
^ - brush up
v - brush down


Show more