Band - Sevendust
Song - Black
Album - Sevendust (1997)

Gtr I (Db Ab Db Gb Bb Eb) - 'Untitled'
Gtr II (Db Ab Db Gb Bb Eb) - 'Untitled'
Gtr III (Db Ab Db Gb Bb Eb) - 'Untitled'
Gtr IV (Db Ab Db Gb Bb Eb) - 'Untitled'


   Intro
    Q=104
    N.C.
   4/4
    Gtr I
    S S S S S S S S  S  S  S  S S S  S  S
||----------------------------------------|
||o---------------------------------------|
||----------------------------------------|
||--7-7-7-7-7-7-7-7-12-12-12-12-0-0-10-10-|
||o---------------------------------------|
||----------------------------------------|


  S S S S S S S S  S  S  S  S S S  S  S
|----------------------------------------||
|---------------------------------------o||
|----------------------------------------||
|-7-7-7-7-7-7-7-7-12-12-12-12-0-0-10-10--||
|---------------------------------------o||
|----------------------------------------||


    D5  N.C.D5N.C.D5N.C.D5N.C.D5N.C.  D5  N.C.D5N.C.D5N.C.D5N.C.D5N.C.
    Gtr I
    S S S S S S S S S S S S S S S S   S S S S S S S S S S S S S S S S
||----------------------------------|-----------------------------------||
||o---------------------------------|----------------------------------o||
||----------------------------------|-----------------------------------||
||--7-7-7-7-7-7-7-7-7-7-7-7-7-7-7-7-|-7-7-7-7-7-7-7-7-7-7-7-7-7-7-7-7---||
||o---------------------------------|----------------------------------o||
||----------------------------------|-----------------------------------||
|
|   Gtr II
|   S S S S S S S S S S S S S S S S   S S S S S S S S S S S S S S S S
||----------------------------------|-----------------------------------||
||o---------------------------------|----------------------------------o||
||------5s7---5s7---5s7---5s7---5s7-|-----5s7---5s7---5s7---5s7---5s7---||
||--0-0-----0-----0-----0-----0-----|-0-0-----0-----0-----0-----0-------||
||o-0-0-3s5-0-3s5-0-3s5-0-3s5-0-3s5-|-0-0-3s5-0-3s5-0-3s5-0-3s5-0-3s5--o||
||--0-0-----0-----0-----0-----0-----|-0-0-----0-----0-----0-----0-------||


  D5  N.C.D5N.C.D5N.C.D5N.C.D5N.C.  D5  N.C.D5N.C.D5N.C.D5N.C.D5N.C.
  S S S S S S S S S S S S S S S S   S S S S S S S S S S S S S S S S
|---------------------------------|---------------------------------|
|---------------------------------|---------------------------------|
|---------------------------------|---------------------------------|
|-7-7-7-7-7-7-7-7-7-7-7-7-7-7-7-7-|-7-7-7-7-7-7-7-7-7-7-7-7-7-7-7-7-|
|---------------------------------|---------------------------------|
|---------------------------------|---------------------------------|
|
| S S S S S S S S S S S S S S S S   S S S S S S S S S S S S S S S S
|---------------------------------|---------------------------------|
|---------------------------------|---------------------------------|
|---------------------------------|---------------------------------|
|-0-0-5s7-0-5s7-0-5s7-0-5s7-0-5s7-|-0-0-5s7-0-5s7-0-5s7-0-5s7-0-5s7-|
|-0-0-----0-----0-----0-----0-----|-0-0-----0-----0-----0-----0-----|
|-0-0-5s7-0-5s7-0-5s7-0-5s7-0-5s7-|-0-0-5s7-0-5s7-0-5s7-0-5s7-0-5s7-|


  D5  N.C. D5N.C. D5N.C. D5N.C. D5N.C.   D5  N.C. D5N.C. D5N.C. D5N.C. D5N.C.
  S S S  S S S  S S S  S S S  S S S  S   S S S  S S S  S S S  S S S  S S S  S
|--------------------------------------|------------------------------------
|--------------------------------------|------------------------------------
|--------------------------------------|------------------------------------
|-7-7-7--7-7-7--7-7-7--7-7-7--7-7-7--7-|-7-7-7--7-7-7--7-7-7--7-7-7--7-7-7--
|--------------------------------------|------------------------------------
|--------------------------------------|------------------------------------
|
| S S S  S S S  S S S  S S S  S S S  S   S S S  S S S  S S S  S S S  S S S  S
|--------------------------------------|------------------------------------
|--------------------------------------|------------------------------------
|-----9s11---9s11---9s11---9s11---9s11-|-----9s11---9s11---9s11---9s11---9s1
|-0-0------0------0------0------0------|-0-0------0------0------0------0----
|-0-0-7s=9-0-7s=9-0-7s=9-0-7s=9-0-7s=9-|-0-0-7s=9-0-7s=9-0-7s=9-0-7s=9-0-7s9
|-0-0------0------0------0------0------|-0-0------0------0------0------0----


   Verse
    D5Eb5          Ebsus2 (xx1341@1)   Gtrs II, III
    E (022100@1)name="chord_022100@1">E +H.         W
||---------------|--------|
||o--------------|--------|
||---------------|--3-----|
||--0-1-(1)------|--3-----|
||o-0-1-(1)------|-(1)----|
||--0-1-(1)------|-(1)----|


  1.,2.,3.
  F5D5
      PM------------------------------------|
  E (022100@1)name="chord_022100@1">E S ES (022100@1)ES (022100@1)ES (022100@1)E (022100@1) S S ES (022100@1)ES (022100@1)ES (022100@1)ES (022100@1)E (022100@1)4x
|---------------------|------------------------||
|---------------------|-----------------------o||
|---------------------|------------------------||
|-3-0-----------------|------------------------||
|-3-0-0-0-0-0-0-0-0-0-|-0-0-0-0-0-0-0-0-0-0-0-o||
|-3-0-0-0-0-0-0-0-0-0-|-0-0-0-0-0-0-0-0-0-0-0--||


  4.
  F5 (133xxx@1)D5 (xx023x@1) Gtr I
  S S S S S S S S  S  S  S  S S S  S  S
|---------------------------------------|
|---------------------------------------|
|---------------------------------------|
|-7-7-7-7-7-7-7-7-12-12-12-12-0-0-10-10-|
|---------------------------------------|
|---------------------------------------|
|
| Gtr II
|         PM-----------------------------
| E (022100@1) E (022100@1) S E (022100@1) S  E (022100@1)   S  E (022100@1) S  E|---------------------------------------| (022100@1)|---------------------------------------|
|---------------------------------------|
|-3---0---------------------------------|
|-3---0---0-0---0--0-----0--0---0--0----|
|-3---0---0-0---0--0-----0--0---0--0----|


                              C5 (x355xx@1) D5 (xx023x@1) S S S S S S S S  S  S  S  S  S S  S  S
|----------------------------------------||
|----------------------------------------||
|----------------------------------------||
|-7-7-7-7-7-7-7-7-12-12-12-12--0-0-10-10-||
|----------------------------------------||
|----------------------------------------||
|
|--------------------------|
| S S E (022100@1) S E (022100@1) S  E (022100@1)   S  S  E (022100@1)  E|----------------------------------------|| (022100@1)|----------------------------------------||
|----------------------------------------||
|-----------------------------10---12----||
|-0-0-0---0-0---0--0-----0--0-10---12----||
|-0-0-0---0-0---0--0-----0--0-10---12----||


 Pre-Verse
  D5  N.C.D5N.C.D5N.C.D5N.C.D5N.C.  D5  N.C.D5N.C.D5N.C.D5N.C.D5
  S S S S S S S S S S S S S S S S   S S S S S S S S S S S S S S S S
|---------------------------------|---------------------------------||
|---------------------------------|---------------------------------||
|---------------------------------|---------------------------------||
|-7-7-7-7-7-7-7-7-7-7-7-7-7-7-7-7-|-7-7-7-7-7-7-7-7-7-7-7-7-7-7-7-7-||
|---------------------------------|---------------------------------||
|---------------------------------|---------------------------------||
|
| S S S S S S S S S S S S S S S S   S S S S S S S S S S S S S S E|---------------------------------|---------------------------------|| (022100@1)|---------------------------------|---------------------------------||
|-----5s7---5s7---5s7---5s7---5s7-|---------------------------------||
|-0-0-----0-----0-----0-----0-----|-0-0-5s7-0-5s7-0-5s7-0-5s7-0-----||
|-0-0-3s5-0-3s5-0-3s5-0-3s5-0-3s5-|-0-0-----0-----0-----0-----0-----||
|-0-0-----0-----0-----0-----0-----|-0-0-5s7-0-5s7-0-5s7-0-5s7-0-----||


   Verse
    D5Eb5          Ebsus2 (xx1341@1)   Gtrs II, III
    E (022100@1)name="chord_022100@1">E +H.         W
||---------------|--------|
||o--------------|--------|
||---------------|--3-----|
||--0-1-(1)------|--3-----|
||o-0-1-(1)------|-(1)----|
||--0-1-(1)------|-(1)----|


  1.
  F5D5
      PM------------------------------------|
  E (022100@1)name="chord_022100@1">E S ES (022100@1)ES (022100@1)ES (022100@1)E (022100@1) S S ES (022100@1)ES (022100@1)ES (022100@1)ES (022100@1)E|---------------------|------------------------|| (022100@1)|---------------------|-----------------------o||
|---------------------|------------------------||
|-3-0-----------------|------------------------||
|-3-0-0-0-0-0-0-0-0-0-|-0-0-0-0-0-0-0-0-0-0-0-o||
|-3-0-0-0-0-0-0-0-0-0-|-0-0-0-0-0-0-0-0-0-0-0--||


  2.
  F5D5                         C5 (x355xx@1)name="chord_xx023x@1">D5
                           PM|
  E (022100@1)name="chord_022100@1">E +H     Q    H    +E  S S  E (022100@1)E|---------------|--------------------|| (022100@1)|---------------|--------------------||
|---------------|--------------------||
|-3-0-(0)----0--|-0----(0)-----10-12-||
|-3-0-(0)----0--|-0----(0)-0-0-10-12-||
|-3-0-(0)----0--|-0----(0)-0-0-10-12-||


   Chorus
    $
    N.C.D5                  C5 (x355xx@1)D5 (xx023x@1)  N.C.D5                  A5 (x022xx@1)Bb5 (x133xx@1)   Gtr I
    S S S S S S S S S S S S S S S S   S S S S S S S S S S S S S S S S
||----------------------------------|----------------------------------|
||o---------------------------------|----------------------------------|
||----------------------------------|----------------------------------|
||----------------------------------|----------------------------------|
||o-5-5-5-5-5-5-5-5-5-5-5-5-5-5-5-5-|-5-5-5-5-5-5-5-5-5-5-5-5-5-5-5-5--|
||----------------------------------|----------------------------------|
|
|   Gtrs II, III
|   E (022100@1) S S S S S S S S S S E (022100@1) E (022100@1)   E (022100@1) S S S S S S S S S S E (022100@1) E||----------------------------------|----------------------------------| (022100@1)||o---------------------------------|----------------------------------|
||------7-7-7-7-7-7-7-7-7-7-5---7---|-----7-7-7-7-7-7-7-7-7-7----------|
||------7-7-7-7-7-7-7-7-7-7-5---7---|-----7-7-7-7-7-7-7-7-7-7-7---8----|
||o-----5-5-5-5-5-5-5-5-5-5-3---5---|-----5-5-5-5-5-5-5-5-5-5-7---8----|
||----------------------------------|-------------------------7---8----|


                                                         To Coda
  D5 (xx023x@1)Bb5D5Bb5 (x133xx@1)D5Bb5 D5 (xx023x@1)F5 (133xxx@1)G5 (355xxx@1)  D5 (xx023x@1)G5 (355xxx@1)D5G5  D5G5  D5 (xx023x@1)C5 (x355xx@1)D5 (xx023x@1) S S S S S S S S S S S S S S S S   S S S S S S S S S S S S S S S S
|---------------------------------|----------------------------------||
|---------------------------------|---------------------------------o||
|---------------------------------|----------------------------------||
|---------------------------------|----------------------------------||
|-1-1-1-1-1-1-1-1-1-1-1-1-1-1-1-1-|---------------------------------o||
|---------------------------------|-5-5-5-5-5-5-5-5-5-5-5-5-5-5-5-5--||
|
| PM|     PM    PM    PM|           PM|     PM    PM    PM|
| S S E (022100@1) S E (022100@1) S E (022100@1) S S E (022100@1) E (022100@1)   S S E (022100@1) S E (022100@1) S E (022100@1) S S E (022100@1) E|---------------------------------|----------------------------------|| (022100@1)|---------------------------------|---------------------------------o||
|---------------------------------|-------------------------5---7----||
|-----8-----8-----8-------3---5---|-----5-----5-----5-------5---7----||
|-0-0-8---0-8---0-8---0-0-3---5---|-0-0-5---0-5---0-5---0-0-3---5---o||
|-0-0-8---0-8---0-8---0-0-3---5---|-0-0-5---0-5---0-5---0-0----------||


 Pre-Verse
  D5  N.C.D5N.C.D5N.C.D5N.C.D5N.C.  D5  N.C.D5N.C.D5N.C.D5N.C.D5
  Gtr I
  S S S S S S S S S S S S S S S S   S S S S S S S S S S S S S S S S
|---------------------------------|---------------------------------||
|---------------------------------|---------------------------------||
|---------------------------------|---------------------------------||
|-7-7-7-7-7-7-7-7-7-7-7-7-7-7-7-7-|-7-7-7-7-7-7-7-7-7-7-7-7-7-7-7-7-||
|---------------------------------|---------------------------------||
|---------------------------------|---------------------------------||
|
| Gtr II
| S S S S S S S S S S S S S S S S   S S S S S S S S S S S S S S E|---------------------------------|---------------------------------|| (022100@1)|---------------------------------|---------------------------------||
|-----5s7---5s7---5s7---5s7---5s7-|---------------------------------||
|-0-0-----0-----0-----0-----0-----|-0-0-5s7-0-5s7-0-5s7-0-5s7-0-----||
|-0-0-3s5-0-3s5-0-3s5-0-3s5-0-3s5-|-0-0-----0-----0-----0-----0-----||
|-0-0-----0-----0-----0-----0-----|-0-0-5s7-0-5s7-0-5s7-0-5s7-0-----||


   Verse
    D5Eb5          Ebsus2 (xx1341@1)   Gtrs II, III
    E (022100@1)name="chord_022100@1">E +H.         W
||---------------|--------|
||o--------------|--------|
||---------------|--3-----|
||--0-1-(1)------|--3-----|
||o-0-1-(1)------|-(1)----|
||--0-1-(1)------|-(1)----|


  1.,2.,3.
  F5D5
      PM------------------------------------|
  E (022100@1)name="chord_022100@1">E S ES (022100@1)ES (022100@1)ES (022100@1)E (022100@1) S S ES (022100@1)ES (022100@1)ES (022100@1)ES (022100@1)E (022100@1)4x
|---------------------|------------------------||
|---------------------|-----------------------o||
|---------------------|------------------------||
|-3-0-----------------|------------------------||
|-3-0-0-0-0-0-0-0-0-0-|-0-0-0-0-0-0-0-0-0-0-0-o||
|-3-0-0-0-0-0-0-0-0-0-|-0-0-0-0-0-0-0-0-0-0-0--||


  4.
                      D.S. al Coda
  F5D5                         C5 (x355xx@1)name="chord_xx023x@1">D5
                           PM|
  E (022100@1)name="chord_022100@1">E +H     Q    H    +E  S S  E (022100@1)E|---------------|--------------------|| (022100@1)|---------------|--------------------||
|---------------|--------------------||
|-3-0-(0)----0--|-0----(0)-----10-12-||
|-3-0-(0)----0--|-0----(0)-0-0-10-12-||
|-3-0-(0)----0--|-0----(0)-0-0-10-12-||


  &
  N.C.D5                  C5 (x355xx@1)D5 (xx023x@1)  N.C.D5                  Bb5 (x133xx@1)name="chord_xx023x@1">D5
  Gtr I
  S S S S S S S S S S S S S S S S   S S S S S S S S S S S S S S S S
|---------------------------------|---------------------------------|
|---------------------------------|---------------------------------|
|---------------------------------|---------------------------------|
|-7-7-7-7-7-7-7-7-7-7-7-7-7-7-7-7-|-7-7-7-7-7-7-7-7-7-7-7-7-7-7-7-7-|
|---------------------------------|---------------------------------|
|---------------------------------|---------------------------------|
|
| Gtrs II, III
| E (022100@1) S S S S S S S S S S E (022100@1) E (022100@1)   E (022100@1) S S S S S S S S S S E (022100@1) E|---------------------------------|---------------------------------| (022100@1)|---------------------------------|---------------------------------|
|-----7-7-7-7-7-7-7-7-7-7-5---7---|-----7-7-7-7-7-7-7-7-7-7-----7---|
|-----7-7-7-7-7-7-7-7-7-7-5---7---|-----7-7-7-7-7-7-7-7-7-7-8---7---|
|-----5-5-5-5-5-5-5-5-5-5-3---5---|-----5-5-5-5-5-5-5-5-5-5-8---5---|
|---------------------------------|-------------------------8-------|


  N.C.D5                  A5 (x022xx@1)D5 (xx023x@1)  N.C.D5
  S S S S S S S S S S S S S S S S   S S S S S S S S S    S  S  S  S  S S S
|---------------------------------|----------------------------------------|
|---------------------------------|----------------------------------------|
|---------------------------------|----------------------------------------|
|-7-7-7-7-7-7-7-7-7-7-7-7-7-7-7-7-|-7-7-7-7-7-7-7-7-7----7--7--7--7--7-7-7-|
|---------------------------------|----------------------------------------|
|---------------------------------|----------------------------------------|
|
| E (022100@1) S S S S S S S S S S E (022100@1) E (022100@1)   E (022100@1) S S S S S S E (022100@1)    +E    +Q
|---------------------------------|----------------------------------------|
|---------------------------------|----------------------------------------|
|-----7-7-7-7-7-7-7-7-7-7-----7---|-----7-7-7-7-7-7-7b9====(7)r==(7)-------|
|-----7-7-7-7-7-7-7-7-7-7-7---7---|-----7-7-7-7-7-7------------------------|
|-----5-5-5-5-5-5-5-5-5-5-7---5---|-----5-5-5-5-5-5-5b7====(5)r==(5)-------|
|-------------------------7-------|----------------------------------------|


 Guitar Solo
  D5 (xx023x@1) Gtr I
  S S S S  S  S S  S  S S S S S S S S   S S S S  S  S S  S  S S S S S S S S
|-------------------------------------|-------------------------------------
|-------------------------------------|-------------------------------------
|-------------------------------------|-------------------------------------
|-7-7-7-7--7--7-7--7--7-7-7-7-7-7-7-7-|-7-7-7-7--7--7-7--7--7-7-7-7-7-7-7-7-
|-------------------------------------|-------------------------------------
|-------------------------------------|-------------------------------------
|
| Gtrs II, III
| PM--------------------------------------------------------------------|
| S S E (022100@1)  S  E (022100@1)  S  E (022100@1) S E (022100@1) S E (022100@1)   S S E (022100@1)  S  E (022100@1)  S  E (022100@1) S E (022100@1) S E|-------------------------------------|------------------------------------- (022100@1)|-------------------------------------|-------------------------------------
|-------------------------------------|-------------------------------------
|-------------------------------------|-------------------------------------
|-0-0-0----0--0----0--0---0-0---0-0---|-0-0-0----0--0----0--0---0-0---0-0---
|-0-0-0----0--0----0--0---0-0---0-0---|-0-0-0----0--0----0--0---0-0---0-0---
|
| Gtr IV
| E (022100@1) E (022100@1) +E    S  S  S S S S S S S S   E (022100@1) E (022100@1) +E    S  S  S S e (022000@1) E.    S
|-------------------------------------|-------------------------------------
|-------------------------------------|-------------------------------------
|-----7---(7)s==8p=7--5-5---5-5---7-7-|-----7---(7)s==8p=7------------------
|-----0---(0)---0-(0)-0-0---0-0---0-0-|-----0---(0)---0-(0)-----3---3h====5-
|-------------------------------------|---------------------3h5-------------
|-------------------------------------|-------------------------------------


  D5 (xx023x@1) S S S S S S S S S S S S S S S S   S S S S S S  S S S    S S S S S S     S
|---------------------------------|-----------------------------------------
|---------------------------------|-----------------------------------------
|---------------------------------|-----------------------------------------
|-7-7-7-7-7-7-7-7-7-7-7-7-7-7-7-7-|-7-7-7-7-7-7--7-7-7----7-7-7-7-7-7-----7-
|---------------------------------|-----------------------------------------
|---------------------------------|-----------------------------------------
|
| PM----------------------------------------------------------------------|
| S S E (022100@1) S E (022100@1) S E (022100@1) S E (022100@1) S E (022100@1)   S S E (022100@1) S E (022100@1)  S E (022100@1)    S E (022100@1) S S     S
|---------------------------------|-----------------------------------------
|---------------------------------|-----------------------------------------
|---------------------------------|-----------------------------------------
|---------------------------------|-----------------------------------------
|-0-0-0---0-0---0-0---0-0---0-0---|-0-0-0---0-0----0-0------0-0---0-0-----0-
|-0-0-0---0-0---0-0---0-0---0-0---|-0-0-0---0-0----0-0------0-0---0-0-----0-
|
| E (022100@1) E.    S E (022100@1) S S e (022000@1) E.    S   E (022100@1) E (022100@1) S E.     Q          E (022100@1) E|---------------------------------|-----------------------------6----------- (022100@1)|---------------------------------|-----6-----8------8b10-----------8b10===
|---------------------5---5h====7-|-----------------------------------------
|-----3h====5-----5h7-------------|-----------------------------------------
|---------------------------------|-----------------------------------------
|---------------------------------|-----------------------------------------


  D5 (xx023x@1)  Eb5 (xx134x@1)  S  S S S  S  S      S  S S S S S S    S S S
|----------------------------------------------|
|----------------------------------------------|
|----------------------------------------------|
|--7--7-8-8--8--8------8--8-8-8-8-8-8----8-8-8-|
|----------------------------------------------|
|----------------------------------------------|
|
|  E (022100@1)  E (022100@1) +H.
|----------------------------------------------|
|----------------------------------------------|
|----------------------------------------------|
|--0----1---(1)--------------------------------|
|--0----1---(1)--------------------------------|
|--0----1---(1)--------------------------------|
|
| +Q.              a (x02210@1)+S  S Q       E (022100@1)    E|------------------------------------------8---| (022100@1)|-(8)-------------(8)r(8)-6-8-------8b10-------|
|----------------------------------------------|
|----------------------------------------------|
|----------------------------------------------|
|----------------------------------------------|


  Ebsus2
   S     S S S S S      S  S S S S S S S S S
|--------------------------------------------|
|--------------------------------------------|
|--------------------------------------------|
|--8-----8-8-8-8-8------8--8-8-8-8-8-8-8-8-8-|
|--------------------------------------------|
|--------------------------------------------|
|
|  W
|--------------------------------------------|
|--------------------------------------------|
|--3-----------------------------------------|
|--3-----------------------------------------|
|-(1)----------------------------------------|
|-(1)----------------------------------------|
|
|  Q.               a (x02210@1)+S  S Q       S S e|--------------------------------------------| (022000@1)|--8b10============(8)r(8)-6-8-------8p6-----|
|----------------------------------------5---|
|--------------------------------------------|
|--------------------------------------------|
|--------------------------------------------|


  F5 (133xxx@1)  D5 (xx023x@1)  S  S  S  S  S   S  S  S  S    S  S    S     S    S  S    S
|----------------------------------------------------------------|
|----------------------------------------------------------------|
|----------------------------------------------------------------|
|--7--7--7--7--7---7--7--7--7----7--7----7-----7----7--7----7----|
|----------------------------------------------------------------|
|----------------------------------------------------------------|
|
|  E (022100@1)   E (022100@1)  +H                               Q
|----------------------------------------------------------------|
|----------------------------------------------------------------|
|----------------------------------------------------------------|
|--3-----0----(0)------------------------------0-----------------|
|--3-----0----(0)------------------------------0-----------------|
|--3-----0----(0)------------------------------0-----------------|
|
|                                   |---3---|          |---3---|
|  S  S  S  S  S   S  S  S  E (022100@1)     S  S    S  E (022100@1)     S  S    S
|-----------------------10---------10-----------------10---------|
|-13-10----10-13--10-13----13b15------13---10-13b15------13---10-|
|-------12-------------------------------------------------------|
|----------------------------------------------------------------|
|----------------------------------------------------------------|
|----------------------------------------------------------------|


                                         C5 (x355xx@1)    D5 (xx023x@1)  S  S  S  S  S  S  S S  S      S  S  S  S    S  S     S
|-----------------------------------------------------------|
|-----------------------------------------------------------|
|-----------------------------------------------------------|
|--7--7--7--7--7--7--7-7--7------7--7--7--7----7--7-----7---|
|-----------------------------------------------------------|
|-----------------------------------------------------------|
|
|                                   PM|
|  H                     +E         S  S  E (022100@1)     E|-----------------------------------------------------------| (022100@1)|-----------------------------------------------------------|
|-----------------------------------------------------------|
|--0---------------------(0)-------------10------12---------|
|--0---------------------(0)--------0--0-10------12---------|
|--0---------------------(0)--------0--0-10------12---------|
|
|  S  S  S  S  S  S  S S  S     +E     S  E (022100@1)     E|-----------------------------------------------------------| (022100@1)|-10-------------------------------------13b15---13b15======|
|----12-10-12----10-12---12b14r(12)---10--------------------|
|-------------12--------------------------------------------|
|-----------------------------------------------------------|
|-----------------------------------------------------------|


   Chorus
    N.C.   D5 (xx023x@1)                C5 (x355xx@1)D5 (xx023x@1)  N.C.    D5 (xx023x@1)                A5 (x022xx@1)Bb5 (x133xx@1)     S  S S S S S S S S S S S S S S S     S   S S S S S S S S S S S S S S S
||-------------------------------------|------------------------------------
||o------------------------------------|------------------------------------
||-------------------------------------|------------------------------------
||-------------------------------------|------------------------------------
||o---5--5-5-5-5-5-5-5-5-5-5-5-5-5-5-5-|---5---5-5-5-5-5-5-5-5-5-5-5-5-5-5-5
||-------------------------------------|------------------------------------
|
|     E (022100@1)  S S S S S S S S S S E (022100@1) E (022100@1)     E (022100@1)   S S S S S S S S S S E (022100@1) E||-------------------------------------|------------------------------------ (022100@1)||o------------------------------------|------------------------------------
||---------7-7-7-7-7-7-7-7-7-7-5---7---|---------7-7-7-7-7-7-7-7-7-7--------
||---------7-7-7-7-7-7-7-7-7-7-5---7---|---------7-7-7-7-7-7-7-7-7-7-7---8--
||o--------5-5-5-5-5-5-5-5-5-5-3---5---|---------5-5-5-5-5-5-5-5-5-5-7---8--
||-------------------------------------|-----------------------------7---8--
|
|                                          >
|    +W                                   +W
||-------------------------------------|------------------------------------
||o-(13)-------------------------------|-(13)r------------------------------
||-------------------------------------|------------------------------------
||-------------------------------------|------------------------------------
||o------------------------------------|------------------------------------
||-------------------------------------|------------------------------------


  D5 (xx023x@1)Bb5D5Bb5 (x133xx@1)D5Bb5 D5 (xx023x@1)F5 (133xxx@1)G5 (355xxx@1)  D5 (xx023x@1)G5 (355xxx@1)D5G5  D5G5  D5 (xx023x@1)C5 (x355xx@1)D5 (xx023x@1) S S S S S S S S S S S S S S S S   S S S S S S S S S S S S S S S S  4x
|---------------------------------|----------------------------------||
|---------------------------------|---------------------------------o||
|---------------------------------|----------------------------------||
|---------------------------------|----------------------------------||
|-1-1-1-1-1-1-1-1-1-1-1-1-1-1-1-1-|---------------------------------o||
|---------------------------------|-5-5-5-5-5-5-5-5-5-5-5-5-5-5-5-5--||
|
| PM|     PM    PM    PM|           PM|     PM    PM    PM|
| S S E (022100@1) S E (022100@1) S E (022100@1) S S E (022100@1) E (022100@1)   S S E (022100@1) S E (022100@1) S E (022100@1) S S E (022100@1) E (022100@1)  4x
|---------------------------------|----------------------------------||
|---------------------------------|---------------------------------o||
|---------------------------------|-------------------------5---7----||
|-----8-----8-----8-------3---5---|-----5-----5-----5-------5---7----||
|-0-0-8---0-8---0-8---0-0-3---5---|-0-0-5---0-5---0-5---0-0-3---5---o||
|-0-0-8---0-8---0-8---0-0-3---5---|-0-0-5---0-5---0-5---0-0----------||
|
| W                                 W                                4x
|---------------------------------|----------------------------------||
|---------------------------------|---------------------------------o||
|---------------------------------|----------------------------------||
|---------------------------------|----------------------------------||
|---------------------------------|---------------------------------o||
|---------------------------------|----------------------------------||


   Bridge
    D5  N.C.D5N.C.D5N.C.D5N.C.D5N.C.  D5  N.C.D5N.C.N.N.C.D5N.C.D5N.C.
    Gtr I
    S S S S S S S S S S S S S S S S   S S S S S S S S S S S S S S S S
||----------------------------------|-----------------------------------||
||o---------------------------------|----------------------------------o||
||----------------------------------|-----------------------------------||
||--7-7-7-7-7-7-7-7-7-7-7-7-7-7-7-7-|-7-7-7-7-7-7-7-7-7-7-7-7-7-7-7-7---||
||o---------------------------------|----------------------------------o||
||----------------------------------|-----------------------------------||
|
|   Gtrs II, III
|   S S S S S S S S S S S S S S S S   S S S S S S S S S S S S S S S S
||----------------------------------|-----------------------------------||
||o---------------------------------|----------------------------------o||
||------5s7---5s7---5s7---5s7---5s7-|-----5s7---5s7---5s7---5s7---5s7---||
||--0-0-----0-----0-----0-----0-----|-0-0-----0-----0-----0-----0-------||
||o-0-0-3s5-0-3s5-0-3s5-0-3s5-0-3s5-|-0-0-3s5-0-3s5-0-3s5-0-3s5-0-3s5--o||
||--0-0-----0-----0-----0-----0-----|-0-0-----0-----0-----0-----0-------||


  D5  N.C.D5N.C.D5N.C.D5N.C.D5N.C.  D5  N.C.D5N.C.D5N.C.D5N.C.D5N.C.
  S S S S S S S S S S S S S S S S   S S S S S S S S S S S S S S S S
|---------------------------------|---------------------------------|
|---------------------------------|---------------------------------|
|---------------------------------|---------------------------------|
|-7-7-7-7-7-7-7-7-7-7-7-7-7-7-7-7-|-7-7-7-7-7-7-7-7-7-7-7-7-7-7-7-7-|
|---------------------------------|---------------------------------|
|---------------------------------|---------------------------------|
|
| S S S S S S S S S S S S S S S S   S S S S S S S S S S S S S S S S
|---------------------------------|---------------------------------|
|---------------------------------|---------------------------------|
|---------------------------------|---------------------------------|
|-0-0-5s7-0-5s7-0-5s7-0-5s7-0-5s7-|-0-0-5s7-0-5s7-0-5s7-0-5s7-0-5s7-|
|-0-0-----0-----0-----0-----0-----|-0-0-----0-----0-----0-----0-----|
|-0-0-5s7-0-5s7-0-5s7-0-5s7-0-5s7-|-0-0-5s7-0-5s7-0-5s7-0-5s7-0-5s7-|


  D5  N.C. D5N.C. D5N.C. D5N.C. D5N.C.   D5  N.C. D5N.C. D5N.C. D5
                                                                    |-3-|
  S S S  S S S  S S S  S S S  S S S  S   S S S  S S S  S S S  S S S E (022100@1)name="chord_022100@1">E E|--------------------------------------|-----------------------------------| (022100@1)|--------------------------------------|-----------------------------------|
|--------------------------------------|-----------------------------------|
|-7-7-7--7-7-7--7-7-7--7-7-7--7-7-7--7-|-7-7-7--7-7-7--7-7-7--7-7-7-7-7-7--|
|--------------------------------------|-----------------------------------|
|--------------------------------------|-----------------------------------|
|
|                                                                   PM--|
|                                                                   |-3-|
| S S S  S S S  S S S  S S S  S S S  S   S S S  S S S  S S S  S S S E (022100@1)name="chord_022100@1">E E|--------------------------------------|-----------------------------------| (022100@1)|--------------------------------------|-----------------------------------|
|-----9s11---9s11---9s11---9s11---9s11-|-----9s11---9s11---9s11------------|
|-0-0------0------0------0------0------|-0-0------0------0------0-0--------|
|-0-0-7s=9-0-7s=9-0-7s=9-0-7s=9-0-7s=9-|-0-0-7s=9-0-7s=9-0-7s=9-0-0-0-0-0--|
|-0-0------0------0------0------0------|-0-0------0------0------0-0-0-0-0--|


   Outro
    D5 (xx023x@1)                        Eb5 (xx134x@1) D5 (xx023x@1)                        Eb5 (xx134x@1)   S S S S S S S S S S S S S S S S   S S S S S S S S S S S S S S S S   4x
||----------------------------------|-----------------------------------||
||o---------------------------------|----------------------------------o||
||----------------------------------|-----------------------------------||
||--7-7-7-7-7-7-7-7-7-7-7-7-7-7-7-7-|-7-7-7-7-7-7-7-7-7-7-7-7-7-7-7-7---||
||o---------------------------------|----------------------------------o||
||----------------------------------|-----------------------------------||
|
|   PM------------------------|       PM------------------------|
|   S S E (022100@1) S E (022100@1) S E (022100@1) S E (022100@1) S E (022100@1)   S S E (022100@1) S E (022100@1) S E (022100@1) S E (022100@1) S E (022100@1)   4x
||----------------------------------|-----------------------------------||
||o---------------------------------|----------------------------------o||
||----------------------------------|-----------------------------------||
||------------------------------1---|-----------------------------1-----||
||o-0-0-0---0-0---0-0---0-0---0-1---|-0-0-0---0-0---0-0---0-0---0-1----o||
||--0-0-0---0-0---0-0---0-0---0-1---|-0-0-0---0-0---0-0---0-0---0-1-----||




--------------------------------------------------------------------------------


Duration Legend
---------------
W - whole; H - half; Q - quarter; E - 8th; S - 16th; T - 32nd; X - 64th; a - acciaccatura
+ - note tied to previous; . - note dotted; .. - note double dotted
Uncapitalized letters represent notes that are staccato (1/2 duration)
Irregular groupings are notated above the duration line
Duration letters will always appear directly above the note/fret number it represents the
duration for.  Duration letters with no fret number below them represent rests.  Multi-
bar rests are notated in the form Wxn, where n is the number of bars to rest for.  Low
melody durations appear below the staff

Tablature Legend
----------------
 h   - hammer-on
 p   - pull-off
 b (x24432@1) - bend
 pb  - pre-bend
 r   - bend release (if no number after the r, then release immediately)
 /  - slide into or out of (from/to "nowhere")
 s   - legato slide
 S   - shift slide
 - natural harmonic
[n]  - artificial harmonic
n(n) - tapped harmonic
 ~   - vibrato
 tr  - trill
 T   - tap
 TP  - trem. picking
 PM  - palm muting
n/  - tremolo bar dip; n = amount to dip
 n  - tremolo bar down
 n/  - tremolo bar up
/n  - tremolo bar inverted dip
 =   - hold bend; also acts as connecting device for hammers/pulls
  - volume swell (louder/softer)
 x   - on rhythm slash represents muted slash
 o   - on rhythm slash represents single note slash

Misc Legend
-----------
 |  - bar
||  - double bar
||o - repeat start
o|| - repeat end
*|  - double bar (ending)
 :  - bar (freetime)
 $  - Segno
 &  - Coda
Tempo markers -  = BPM(8/16=s8/s16), where s8 = swing 8ths, s16 = swing 16ths




Show more