Band- sevendust
Song- Damaged

TUNING: Drop D and down 1 and 1/2 steps (B F# B E G# C#)

     Riff 1:
    C#|----------------------|
    G#|----------------------|
    E |----------------------| tremlo pick each note
    B |----------------------|
    F#|----------------------|
    B |-6----7----1----2-----|

     Riff 2:
    C#|----------------------|
    G#|----------------------|
    E |----------------------| tremlo pick each note
    B |----------------------|
    F#|----------------------|
    B |-6----7----1----0-----|

     Riff 3:
    C#|-------------------------------|
    G#|-------------------------------|
    E |-------------------------------| PM=palm mute
    B |-0--0-0-0-0---0-0-0-0--0-0-0-0-|
    F#|-0--0-0-0-0---0-0-0-0--0-0-0-0-|
    B |-0--0-0-0-0---0-0-0-0--0-0-0-0-|
     PM          -         -        -

     Riff 4:
    C#|------------------------|
    G#|------------------------|
    E |-6----/9----/11---9----| tremlo pick each note
    B |-x----/x----/x----x----| / or =slide
    F#|-4----/7----/9----7----|
    B |------------------------|

     Riff 5: (solo)
    C#|----------------------------------|
    G#|----------------------------------|
    E |----------------------------------| (x)=played last time only
    B |----------------------------------|
    F#|-3----4--6----4-6-7--9--11--/(14)-|
    B |----------------------------------|

     Riff 6: (end on)
    C#|---|
    G#|---|
    E|-6-| (022100@1)    B|-x-| (x2444x@1)    F#|-4-|
    B|---| (x2444x@1)
Show more