Band- Sevendust
Song- Goin Back To Cali

TUNING: Drop A#; E down 3 steps and all others down 2 steps (A#, F, A#, D#, G, C)

     Note: This is JUST the rhythm guitar. This is just a tab I did while messing around while
           playing the song. I will be adding the lead guitar as soon as I get enough time to sit
           down and figure out ALL of it. I've got bits and pieces though from my messing around
           while I tabbed this.

     Riff 1:
    C|---| (x32010@1)    G|---| (320003@1)    D#|---| 
    A#|-0-|
    F|-0-| (133211@1)    A#|-0-|
     PM -

     Riff 2:
    C |-------------------|
    G |-------------------|
    D#|-------------------| 
    A#|-------------------|
    F |-------------------|
    A#|-0---0---0---0---1-|
     PM                 -

     Riff 3:
    C |-----------------------------------|
    G |-----------------------------------|
    D#|---------------3---5---------------| 
    A#|-0-0-0-0-0-0---1---3---0-0-0-0-0-0-|
    F |-0-0-0-0-0-0---1---3---0-0-0-0-0-0-|
    A#|-0-0-0-0-0-0---1---3---0-0-0-0-0-0-|
     PM - - - - - -           - - - - - -

     Riff 4:
    C |-------|
    G |-------|
    D#|-----4-| Mess around w/ this riff 
    A#|-5p4---| double parts when needed
    F |-------|
    A#|-------|

Show more