Sevendust: Reconnect

Transcribed by: Andrew Zara (disturbedfreak0520@yahoo.com)

Date last modified: June 11, 2007

PLEASE DO NOT COPY THIS TAB TO ANOTHER SITE
WITHOUT AUTHORS' PERMISSION. THANK YOU.

Tuning: Drop C# (C#,G#,C#,F#,A#,D#)

Clint Lowery

 S S S S Q    S S S S S S S S    S S S S Q    S S S S S S S S  
D#||-------------------------------|-------------------------------|
A#||-------------------------------|-------------------------------|
F#||-------------------------------|-------------------------------|
C#||-------------------------------|-------------------------------|
G#||--0-2-2-2--------0-2-2-0-3-3-3-|--0-2-2-2--------0-2-2-0-3-3-3-|
C#||--0-2-2-2--------0-2-2-0-3-3-3-|--0-2-2-2--------0-2-2-0-3-3-3-|


  S S S S Q    S S S S S S S S    S S S S S S S   S Q    E (022100@1) E (022100@1) 
-------------------------------|--------------------------------|
-------------------------------|--------------2br-L-2-----------|
-------------------------------|--------------2br-L-2----2b--L--|
-------------------------------|--------------------------------|
--0-2-2-2--------0-2-2-0-3-3-3-|--0-2-2-2-0-2-------------------|
--0-2-2-2--------0-2-2-0-3-3-3-|--0-2-2-2-0-2-------------------|


  S S S S Q    S S S S S S S S    S S S S Q    S S S S S S S S  
-------------------------------|-------------------------------|
-------------------------------|-------------------------------|
-------------------------------|-------------------------------|
-------------------------------|-------------------------------|
--0-2-2-2--------0-2-2-0-3-3-3-|--0-2-2-2--------0-2-2-0-3-3-3-|
--0-2-2-2--------0-2-2-0-3-3-3-|--0-2-2-2--------0-2-2-0-3-3-3-|


  S S S S Q    S S S S S S S S    S S S S Q    S S S S S S S S  
-------------------------------|-------------------------------|
-------------------------------|-------------------------------|
-------------------------------|-------------------------------|
-------------------------------|-------------------------------|
--0-2-2-2--------0-2-2-0-3-3-3-|--0-2-2-2--------0-2-2-0-3-3-3-|
--0-2-2-2--------0-2-2-0-3-3-3-|--0-2-2-2--------0-2-2-0-3-3-3-|


  S S S S   E (022100@1)  E (022100@1)S S S S S S S S    S S S S   E (022100@1)  E (022100@1)S S S S S S S S  
------------------------------------|------------------------------------|
------------------------------------|------------------------------------|
------------------------------------|------------------------------------|
----------3--3------------------|----------3--3------------------|
--0-2-2-2-------------0-2-2-0-3-3-3-|--0-2-2-2-------------0-2-2-0-3-3-3-|
--0-2-2-2-------------0-2-2-0-3-3-3-|--0-2-2-2-------------0-2-2-0-3-3-3-|


  S S S S   E (022100@1)  E (022100@1)S S S S S S S S    S S S S   E (022100@1)  E (022100@1)S S S S S S S S  
------------------------------------|------------------------------------|
------------------------------------|------------------------------------|
------------------------------------|------------------------------------|
----------3--3------------------|----------3--3------------------|
--0-2-2-2-------------0-2-2-0-3-3-3-|--0-2-2-2-------------0-2-2-0-3-3-3-|
--0-2-2-2-------------0-2-2-0-3-3-3-|--0-2-2-2-------------0-2-2-0-3-3-3-|


  S S S S S S S S S S E (022100@1)S S S S    S S S S S  S S S S S E (022100@1)S  S S S  
---------------------------------|-----------------------------------|
---------------------------------|-----------------------------------|
----------7-7-7-7-7-7----7-7-7-7-|----------7S-9-9-9-9-9----9S-7-7-7-|
---------------------------------|-----------------------------------|
--0-2-2-2-5-5-5-5-5-5----5-5-5-5-|--0-2-2-2-5S-7-7-7-7-7----7S-5-5-5-|
--0-2-2-2------------------------|--0-2-2-2--------------------------|


  S S S S S S S S S S E (022100@1)S S S S    S S S S S  S S S S S E (022100@1)S  S S S  
---------------------------------|-----------------------------------|
---------------------------------|-----------------------------------|
----------7-7-7-7-7-7----7-7-7-7-|----------7S-9-9-9-9-9----9S-7-7-7-|
---------------------------------|-----------------------------------|
--0-2-2-2-5-5-5-5-5-5----5-5-5-5-|--0-2-2-2-5S-7-7-7-7-7----7S-5-5-5-|
--0-2-2-2------------------------|--0-2-2-2--------------------------|


  S S S S Q    S S S S S S S S    S S S S Q    S S S S S S S S  
-------------------------------|-------------------------------|
-------------------------------|-------------------------------|
-------------------------------|-------------------------------|
-------------------------------|-------------------------------|
--0-2-2-2--------0-2-2-0-3-3-3-|--0-2-2-2--------0-2-2-0-3-3-3-|
--0-2-2-2--------0-2-2-0-3-3-3-|--0-2-2-2--------0-2-2-0-3-3-3-|


  S S S S Q    S S S S S S S S    S S S S Q    S S S S S S S S  
-------------------------------|-------------------------------|
-------------------------------|-------------------------------|
-------------------------------|-------------------------------|
-------------------------------|-------------------------------|
--0-2-2-2--------0-2-2-0-3-3-3-|--0-2-2-2--------0-2-2-0-3-3-3-|
--0-2-2-2--------0-2-2-0-3-3-3-|--0-2-2-2--------0-2-2-0-3-3-3-|


  S S S S Q    S S S S S S S S    S S S S Q    S S S S S S S S  
-------------------------------|-------------------------------|
-------------------------------|-------------------------------|
-------------------------------|-------------------------------|
-------------------------------|-------------------------------|
--0-2-2-2--------0-2-2-0-3-3-3-|--0-2-2-2--------0-2-2-0-3-3-3-|
--0-2-2-2--------0-2-2-0-3-3-3-|--0-2-2-2--------0-2-2-0-3-3-3-|


  S S S S Q    S S S S S S S S    S S S S Q    S S S S S S S S  
-------------------------------|-------------------------------|
-------------------------------|-------------------------------|
-------------------------------|-------------------------------|
-------------------------------|-------------------------------|
--0-2-2-2--------0-2-2-0-3-3-3-|--0-2-2-2--------0-2-2-0-3-3-3-|
--0-2-2-2--------0-2-2-0-3-3-3-|--0-2-2-2--------0-2-2-0-3-3-3-|


  S S S S   E (022100@1)  E (022100@1)S S S S S S S S    S S S S   E (022100@1)  E (022100@1)S S S S S S S S  
------------------------------------|------------------------------------|
------------------------------------|------------------------------------|
------------------------------------|------------------------------------|
----------3--3------------------|----------3--3------------------|
--0-2-2-2-------------0-2-2-0-3-3-3-|--0-2-2-2-------------0-2-2-0-3-3-3-|
--0-2-2-2-------------0-2-2-0-3-3-3-|--0-2-2-2-------------0-2-2-0-3-3-3-|


  S S S S   E (022100@1)  E (022100@1)S S S S S S S S    S S S S   E (022100@1)  E (022100@1)S S S S S S S S  
------------------------------------|------------------------------------|
------------------------------------|------------------------------------|
------------------------------------|------------------------------------|
----------3--3------------------|----------3--3------------------|
--0-2-2-2-------------0-2-2-0-3-3-3-|--0-2-2-2-------------0-2-2-0-3-3-3-|
--0-2-2-2-------------0-2-2-0-3-3-3-|--0-2-2-2-------------0-2-2-0-3-3-3-|


  S S S S S S S S S S E (022100@1)S S S S    S S S S S  S S S S S E (022100@1)S  S S S  
---------------------------------|-----------------------------------|
---------------------------------|-----------------------------------|
----------7-7-7-7-7-7----7-7-7-7-|----------7S-9-9-9-9-9----9S-7-7-7-|
---------------------------------|-----------------------------------|
--0-2-2-2-5-5-5-5-5-5----5-5-5-5-|--0-2-2-2-5S-7-7-7-7-7----7S-5-5-5-|
--0-2-2-2------------------------|--0-2-2-2--------------------------|


  S S S S S S S S S S E (022100@1)S S S S    S S S S S  S S S S S E (022100@1)S  S S S  
---------------------------------|-----------------------------------|
---------------------------------|-----------------------------------|
----------7-7-7-7-7-7----7-7-7-7-|----------7S-9-9-9-9-9----9S-7-7-7-|
---------------------------------|-----------------------------------|
--0-2-2-2-5-5-5-5-5-5----5-5-5-5-|--0-2-2-2-5S-7-7-7-7-7----7S-5-5-5-|
--0-2-2-2------------------------|--0-2-2-2--------------------------|


  Q.     E (022100@1)Q    Q       E (022100@1)Q.     H           Q    E (022100@1)E (022100@1)Q    Q     
----------------------|---------------------|-----------------------|
----------------------|---------------------|-----------------------|
----------------------|---------------------|-----------------------|
----------------------|---------------------|-------0--L--L----L----|
----------------------|---------------------|-----------------------|
--2------0--L----8----|--L--5------L--------|--2----L--0--L----8----|


  E (022100@1)E (022100@1)H.              Q    E (022100@1)E (022100@1)E (022100@1)E (022100@1)Q       E (022100@1)Q.     E (022100@1)Q.      
---------------------|------------------------|----------------------|
---------------------|------------------------|----------------------|
-----7--L------------|------------------------|---------------0------|
--L--L--0------------|-------0-----L--0--L----|--0--L------7--L------|
---------------------|------------------------|----------------------|
--L-----L------------|--2----L--0--L-----8----|--L--5------L--L------|


  Q    E (022100@1)E (022100@1)E (022100@1)E (022100@1)Q       W                   S S S S S S S S S S S S S S S S  
------------------------|-------------------|----------------------------------|
------------------------|-------------------|----------------------------------|
-------------------7----|--L----------------|--4-4-4-4-4-4-4-4-4-4-4-4-4-4-4-4-|
-------0--L--L--0--0----|--L----------------|----------------------------------|
------------------------|-------------------|--2-2-2-2-2-2-2-2-2-2-2-2-2-2-2-2-|
--2----L--0--L-----8----|--L----------------|----------------------------------|


  S S S S S S S S S S S S S S S S  
----------------------------------|
----------------------------------|
----------------------------------|
--0-0-0-0-0-0-0-0-0-0-0-0-0-0-0-0-|
--0-0-0-0-0-0-0-0-0-0-0-0-0-0-0-0-|
--0-0-0-0-0-0-0-0-0-0-0-0-0-0-0-0-|


   S  S  S  S  S  S  S  S  S  S  S  S  S  S  S  S  
--------------------------------------------------|
--------------------------------------------------|
--10-10-10-10-10-10-10-10-10-10-10-10-10-10-10-10-|
--------------------------------------------------|
---8--8--8--8--8--8--8--8--8--8--8--8--8--8--8--8-|
--------------------------------------------------|


  S S S S S S S S S S S S Q       S S S S S S S S S S S S S S S S  
-------------------------------|----------------------------------|
-------------------------------|----------------------------------|
--------------------------7----|--4-4-4-4-4-4-4-4-4-4-4-4-4-4-4-4-|
--5-5-5-5-5-5-5-5-5-5-5-5-7----|----------------------------------|
--5-5-5-5-5-5-5-5-5-5-5-5-5----|--2-2-2-2-2-2-2-2-2-2-2-2-2-2-2-2-|
--5-5-5-5-5-5-5-5-5-5-5-5-5----|----------------------------------|


  S S S S S S S S S S S S S S S S  
----------------------------------|
----------------------------------|
----------------------------------|
--0-0-0-0-0-0-0-0-0-0-0-0-0-0-0-0-|
--0-0-0-0-0-0-0-0-0-0-0-0-0-0-0-0-|
--0-0-0-0-0-0-0-0-0-0-0-0-0-0-0-0-|


   S  S  S  S  S  S  S  S  S  S  S  S  S  S  S  S  
--------------------------------------------------|
--------------------------------------------------|
--10-10-10-10-10-10-10-10-10-10-10-10-10-10-10-10-|
--------------------------------------------------|
---8--8--8--8--8--8--8--8--8--8--8--8--8--8--8--8-|
--------------------------------------------------|


  S S S S S S S S S S S S Q       Q    E (022100@1)E (022100@1)Q    Q       H        Q    E (022100@1)E (022100@1) 
-------------------------------|-----------------------|----------------------|
-------------------------------|-----------------------|----------------------|
--------------------------7----|--4----4--3--L----3----|--4--------4----4--4--|
--5-5-5-5-5-5-5-5-5-5-5-5-7----|--2----2--2--L----2----|--2--------2----2--2--|
--5-5-5-5-5-5-5-5-5-5-5-5-5----|--2----2--2--L----2----|--2--------2----2--2--|
--5-5-5-5-5-5-5-5-5-5-5-5-5----|--2----2--2--L----2----|--2--------2----2--2--|


  Q    E (022100@1)E (022100@1)Q    Q       W                   S S S S Q    S S S S S S S S  
-----------------------|-------------------|-------------------------------|
-----------------------|-------------------|-------------------------------|
--4----4--3--L----3----|--4----------------|-------------------------------|
--2----2--2--L----2----|--2----------------|-------------------------------|
--2----2--2--L----2----|--2----------------|--0-2-2-2--------0-2-2-0-3-3-3-|
--2----2--2--L----2----|--2----------------|--0-2-2-2--------0-2-2-0-3-3-3-|


  S S S S Q    S S S S S S S S    S S S S Q    S S S S S S S S  
-------------------------------|-------------------------------|
-------------------------------|-------------------------------|
-------------------------------|-------------------------------|
-------------------------------|-------------------------------|
--0-2-2-2--------0-2-2-0-3-3-3-|--0-2-2-2--------0-2-2-0-3-3-3-|
--0-2-2-2--------0-2-2-0-3-3-3-|--0-2-2-2--------0-2-2-0-3-3-3-|


  S S S S Q    S S S S S S S S    S S S S   E (022100@1)  E (022100@1)S S S S S S S S  
-------------------------------|------------------------------------|
-------------------------------|------------------------------------|
-------------------------------|------------------------------------|
-------------------------------|----------3--3------------------|
--0-2-2-2--------0-2-2-0-3-3-3-|--0-2-2-2-------------0-2-2-0-3-3-3-|
--0-2-2-2--------0-2-2-0-3-3-3-|--0-2-2-2-------------0-2-2-0-3-3-3-|


  S S S S   E (022100@1)  E (022100@1)S S S S S S S S    S S S S   E (022100@1)  E (022100@1)S S S S S S S S  
------------------------------------|------------------------------------|
------------------------------------|------------------------------------|
------------------------------------|------------------------------------|
----------3--3------------------|----------3--3------------------|
--0-2-2-2-------------0-2-2-0-3-3-3-|--0-2-2-2-------------0-2-2-0-3-3-3-|
--0-2-2-2-------------0-2-2-0-3-3-3-|--0-2-2-2-------------0-2-2-0-3-3-3-|


  S S S S   E (022100@1)  E (022100@1)S S S S S S S S    S S S S S S S S S S E (022100@1)S S S S  
------------------------------------|---------------------------------|
------------------------------------|---------------------------------|
------------------------------------|----------7-7-7-7-7-7----7-7-7-7-|
----------3--3------------------|---------------------------------|
--0-2-2-2-------------0-2-2-0-3-3-3-|--0-2-2-2-5-5-5-5-5-5----5-5-5-5-|
--0-2-2-2-------------0-2-2-0-3-3-3-|--0-2-2-2------------------------|


  S S S S S  S S S S S E (022100@1)S  S S S    S S S S S S S S S S E (022100@1)S S S S  
-----------------------------------|---------------------------------|
-----------------------------------|---------------------------------|
----------7S-9-9-9-9-9----9S-7-7-7-|----------7-7-7-7-7-7----7-7-7-7-|
-----------------------------------|---------------------------------|
--0-2-2-2-5S-7-7-7-7-7----7S-5-5-5-|--0-2-2-2-5-5-5-5-5-5----5-5-5-5-|
--0-2-2-2--------------------------|--0-2-2-2------------------------|


  S S S S S  S S S S S E (022100@1)S  S S S    Q.     E (022100@1)Q    Q     
-----------------------------------|----------------------|
-----------------------------------|----------------------|
----------7S-9-9-9-9-9----9S-7-7-7-|--7------7--L----7----|
-----------------------------------|--5------7--L----5----|
--0-2-2-2-5S-7-7-7-7-7----7S-5-5-5-|----------------------|
--0-2-2-2--------------------------|----------------------|


  E (022100@1)Q.     E.  S E.   S    Q.     E (022100@1)Q    Q       E (022100@1)Q.     H         
-------------------------|----------------------|---------------------|
-------------------------|----------------------|---------------------|
--L--7------7---7-7~---7-|--7------7--L---------|---------------------|
--L--7------7---7-7~---7-|--5------7--L----8----|--L--0------L--------|
-------------------------|----------------------|---------------------|
-------------------------|-----------------8----|--L------------------|


  Q.     E (022100@1)Q    Q       E (022100@1)Q.     E.  S E.   S    Q.     E (022100@1)Q    Q     
----------------------|-------------------------|----------------------|
----------------------|-------------------------|----------------------|
--7------7--L----7----|--L--7------7---7-7~---7-|--7------7--L---------|
--5------7--L----5----|--L--7------7---7-7~---7-|--5------7--L----8----|
----------------------|-------------------------|----------------------|
----------------------|-------------------------|-----------------8----|


  E (022100@1)Q.     H           S S S S S S S S S S S S S S S S  
---------------------|----------------------------------|
---------------------|----------------------------------|
---------------------|--4-4-4-4-4-4-4-4-4-4-4-4-4-4-4-4-|
--L--0------L--------|----------------------------------|
---------------------|--2-2-2-2-2-2-2-2-2-2-2-2-2-2-2-2-|
--L------------------|----------------------------------|


  S S S S S S S S S S S S S S S S  
----------------------------------|
----------------------------------|
----------------------------------|
--0-0-0-0-0-0-0-0-0-0-0-0-0-0-0-0-|
--0-0-0-0-0-0-0-0-0-0-0-0-0-0-0-0-|
--0-0-0-0-0-0-0-0-0-0-0-0-0-0-0-0-|


   S  S  S  S  S  S  S  S  S  S  S  S  S  S  S  S  
--------------------------------------------------|
--------------------------------------------------|
--10-10-10-10-10-10-10-10-10-10-10-10-10-10-10-10-|
--------------------------------------------------|
---8--8--8--8--8--8--8--8--8--8--8--8--8--8--8--8-|
--------------------------------------------------|


  S S S S S S S S S S S S Q       S S S S S S S S S S S S S S S S  
-------------------------------|----------------------------------|
-------------------------------|----------------------------------|
--------------------------7----|--4-4-4-4-4-4-4-4-4-4-4-4-4-4-4-4-|
--5-5-5-5-5-5-5-5-5-5-5-5-7----|----------------------------------|
--5-5-5-5-5-5-5-5-5-5-5-5-5----|--2-2-2-2-2-2-2-2-2-2-2-2-2-2-2-2-|
--5-5-5-5-5-5-5-5-5-5-5-5-5----|----------------------------------|


  S S S S S S S S S S S S S S S S  
----------------------------------|
----------------------------------|
----------------------------------|
--0-0-0-0-0-0-0-0-0-0-0-0-0-0-0-0-|
--0-0-0-0-0-0-0-0-0-0-0-0-0-0-0-0-|
--0-0-0-0-0-0-0-0-0-0-0-0-0-0-0-0-|


   S  S  S  S  S  S  S  S  S  S  S  S  S  S  S  S  
--------------------------------------------------|
--------------------------------------------------|
--10-10-10-10-10-10-10-10-10-10-10-10-10-10-10-10-|
--------------------------------------------------|
---8--8--8--8--8--8--8--8--8--8--8--8--8--8--8--8-|
--------------------------------------------------|


  S S S S S S S S S S S S Q       S S S S S S S S S S S S S S S S  
-------------------------------|--0-0-0-0-0-0-0-0-0-0-0-0-0-0-0-0-|
-------------------------------|--5-5-5-5-5-5-5-5-5-5-5-5-5-5-5-5-|
--------------------------7----|----------------------------------|
--5-5-5-5-5-5-5-5-5-5-5-5-7----|----------------------------------|
--5-5-5-5-5-5-5-5-5-5-5-5-5----|----------------------------------|
--5-5-5-5-5-5-5-5-5-5-5-5-5----|----------------------------------|


  S S S S S S S S S S S S S S S S    S S S S S S S S S S S S S S S S  
--0-0-0-0-0-0-0-0-0-0-0-0-0-0-0-0-|--0-0-0-0-0-0-0-0-0-0-0-0-0-0-0-0-|
--5-5-5-5-5-5-5-5-5-5-5-5-5-5-5-5-|--3-3-3-3-3-3-3-3-3-3-3-3-3-3-3-3-|
----------------------------------|----------------------------------|
----------------------------------|----------------------------------|
----------------------------------|----------------------------------|
----------------------------------|----------------------------------|


  S S S S S S S S S S S S S S S S    S S S S S S S S S S S S S S S S  
--0-0-0-0-0-0-0-0-0-0-0-0-0-0-0-0-|--0-0-0-0-0-0-0-0-0-0-0-0-0-0-0-0-|
--5-5-5-5-5-5-5-5-5-5-5-5-5-5-5-5-|--5-5-5-5-5-5-5-5-5-5-5-5-5-5-5-5-|
----------------------------------|----------------------------------|
----------------------------------|----------------------------------|
----------------------------------|----------------------------------|
----------------------------------|----------------------------------|


  S S S S S S S S S S S S S S S S    S S S S E (022100@1)S S S S E (022100@1)S E.   
--0-0-0-0-0-0-0-0-0-0-0-0-0-0-0-0-|--0-0-0-0----0-0-0-0----0-0---|
--5-5-5-5-5-5-5-5-5-5-5-5-5-5-5-5-|--3-3-3-3----3-3-3-3----3-3---|
----------------------------------|------------------------------|
----------------------------------|------------------------------|
----------------------------------|------------------------------|
----------------------------------|------------------------------|


  S S S S E (022100@1)S S S S E (022100@1)S S E (022100@1)   S S S S E (022100@1)S S S S E (022100@1)S S E (022100@1) 
-------------------------------|-------------------------------|
-------------------------------|-------------------------------|
--4-4-4-4----4-4-4-4----4-4----|--7-7-7-7----7-7-7-7----7-7----|
-------------------------------|-------------------------------|
--2-2-2-2----2-2-2-2----2-2----|--5-5-5-5----5-5-5-5----5-5----|
-------------------------------|-------------------------------|


   S  S  S  S E (022100@1) S  S  S  S E (022100@1) S  S E (022100@1) 
-----------------------------------------|
-----------------------------------------|
--10-10-10-10----10-10-10-10----10-10----|
-----------------------------------------|
---8--8--8--8-----8--8--8--8-----8--8----|
-----------------------------------------|


   S  S  S  S E (022100@1) S  S  S  S E (022100@1) S  S E (022100@1)   S S S S E (022100@1)S S S S E (022100@1)S S E (022100@1) 
-----------------------------------------|-------------------------------|
-----------------------------------------|-------------------------------|
--10-10-10-10----10-10-10-10----10-10----|--4-4-4-4----4-4-4-4----4-4----|
-----------------------------------------|-------------------------------|
---8--8--8--8-----8--8--8--8-----8--8----|--2-2-2-2----2-2-2-2----2-2----|
-----------------------------------------|-------------------------------|


  S S S S E (022100@1)S S S S E (022100@1)S S E (022100@1)    S  S  S  S E (022100@1) S  S  S  S E (022100@1) S  S E (022100@1) 
-------------------------------|-----------------------------------------|
-------------------------------|-----------------------------------------|
--7-7-7-7----7-7-7-7----7-7----|--10-10-10-10----10-10-10-10----10-10----|
-------------------------------|-----------------------------------------|
--5-5-5-5----5-5-5-5----5-5----|---8--8--8--8-----8--8--8--8-----8--8----|
-------------------------------|-----------------------------------------|


   S  S  S  S E (022100@1) S  S  S  S E (022100@1) S  S E (022100@1)  
-----------------------------------------||
-----------------------------------------||
--10-10-10-10----10-10-10-10----10-10----||
-----------------------------------------||
---8--8--8--8-----8--8--8--8-----8--8----||
-----------------------------------------||

*************************************
*************************************
*************************************

John Connolly


      S S S S Q    S S S S S S S S    S S S S Q    S S S S S S S S  
D#||-------------------------------|-------------------------------|
A#||-------------------------------|-------------------------------|
F#||-------------------------------|-------------------------------|
C#||-------------------------------|-------------------------------|
G#||--0-2-2-2--------0-2-2-0-3-3-3-|--0-2-2-2--------0-2-2-0-3-3-3-|
C#||--0-2-2-2--------0-2-2-0-3-3-3-|--0-2-2-2--------0-2-2-0-3-3-3-|


  S S S S Q    S S S S S S S S    S S S S S S S S Q.     E (022100@1) 
-------------------------------|----------------------------|
-------------------------------|----------------------------|
-------------------------------|----------------------------|
-------------------------------|----------------------------|
--0-2-2-2--------0-2-2-0-3-3-3-|--0-2-2-2-0-2-x-1-L------L--|
--0-2-2-2--------0-2-2-0-3-3-3-|--0-2-2-2-0-2-x-1-L------L--|


  S S S S Q    S S S S S S S S    S S S S Q    S S S S S S S S  
-------------------------------|-------------------------------|
-------------------------------|-------------------------------|
-------------------------------|-------------------------------|
-------------------------------|-------------------------------|
--0-2-2-2--------0-2-2-0-3-3-3-|--0-2-2-2--------0-2-2-0-3-3-3-|
--0-2-2-2--------0-2-2-0-3-3-3-|--0-2-2-2--------0-2-2-0-3-3-3-|


  S S S S Q    S S S S S S S S    S S S S Q    S S S S S S S S  
-------------------------------|-------------------------------|
-------------------------------|-------------------------------|
-------------------------------|-------------------------------|
-------------------------------|-------------------------------|
--0-2-2-2--------0-2-2-0-3-3-3-|--0-2-2-2--------0-2-2-0-3-3-3-|
--0-2-2-2--------0-2-2-0-3-3-3-|--0-2-2-2--------0-2-2-0-3-3-3-|


  S S S S   E (022100@1)  E (022100@1)S S S S S S S S    S S S S   E (022100@1)  E (022100@1)S S S S S S S S  
------------------------------------|------------------------------------|
------------------------------------|------------------------------------|
------------------------------------|------------------------------------|
----------3--3------------------|----------3--3------------------|
--0-2-2-2-------------0-2-2-0-3-3-3-|--0-2-2-2-------------0-2-2-0-3-3-3-|
--0-2-2-2-------------0-2-2-0-3-3-3-|--0-2-2-2-------------0-2-2-0-3-3-3-|


  S S S S   E (022100@1)  E (022100@1)S S S S S S S S    S S S S   E (022100@1)  E (022100@1)S S S S S S S S  
------------------------------------|------------------------------------|
------------------------------------|------------------------------------|
------------------------------------|------------------------------------|
----------3--3------------------|----------3--3------------------|
--0-2-2-2-------------0-2-2-0-3-3-3-|--0-2-2-2-------------0-2-2-0-3-3-3-|
--0-2-2-2-------------0-2-2-0-3-3-3-|--0-2-2-2-------------0-2-2-0-3-3-3-|


  S S S S  S  S  S  S  S  S E (022100@1) S  S  S  S    S S S S S  S S S S S E (022100@1)S S S S  
-------------------------------------------|----------------------------------|
-------------------------------------------|----------------------------------|
----------10-10-10-10-10-10----10-10-10-10-|----------7S-9-9-9-9-9----9-9-9-9-|
-------------------------------------------|----------------------------------|
--0-2-2-2--8--8--8--8--8--8-----8--8--8--8-|--0-2-2-2-5S-7-7-7-7-7----7-7-7-7-|
--0-2-2-2----------------------------------|--0-2-2-2-------------------------|


  S S S S  S  S  S  S  S  S E (022100@1) S  S  S  S    S S S S S  S S S S S E (022100@1)S S S S  
-------------------------------------------|----------------------------------|
-------------------------------------------|----------------------------------|
----------10-10-10-10-10-10----10-10-10-10-|----------7S-9-9-9-9-9----9-9-9-9-|
-------------------------------------------|----------------------------------|
--0-2-2-2--8--8--8--8--8--8-----8--8--8--8-|--0-2-2-2-5S-7-7-7-7-7----7-7-7-7-|
--0-2-2-2----------------------------------|--0-2-2-2-------------------------|


  S S S S Q    S S S S S S S S    S S S S Q    S S S S S S S S  
-------------------------------|-------------------------------|
-------------------------------|-------------------------------|
-------------------------------|-------------------------------|
-------------------------------|-------------------------------|
--0-2-2-2--------0-2-2-0-3-3-3-|--0-2-2-2--------0-2-2-0-3-3-3-|
--0-2-2-2--------0-2-2-0-3-3-3-|--0-2-2-2--------0-2-2-0-3-3-3-|


  S S S S Q    S S S S S S S S    S S S S S S S S E (022100@1)Q     E (022100@1) 
-------------------------------|------------------------------|
-------------------------------|------------------------------|
-------------------------------|------------------------------|
-------------------------------|---------------------2b----L--|
--0-2-2-2--------0-2-2-0-3-3-3-|--0-2-2-2-2-2-----------------|
--0-2-2-2--------0-2-2-0-3-3-3-|--0-2-2-2-2-2-2-2-L-----------|


  S S S S Q    S S S S S S S S    S S S S Q    S S S S S S S S  
-------------------------------|-------------------------------|
-------------------------------|-------------------------------|
-------------------------------|-------------------------------|
-------------------------------|-------------------------------|
--0-2-2-2--------0-2-2-0-3-3-3-|--0-2-2-2--------0-2-2-0-3-3-3-|
--0-2-2-2--------0-2-2-0-3-3-3-|--0-2-2-2--------0-2-2-0-3-3-3-|


  S S S S Q    S S S S S S S S    S S S S Q    S S S S S S S S  
-------------------------------|-------------------------------|
-------------------------------|-------------------------------|
-------------------------------|-------------------------------|
-------------------------------|-------------------------------|
--0-2-2-2--------0-2-2-0-3-3-3-|--0-2-2-2--------0-2-2-0-3-3-3-|
--0-2-2-2--------0-2-2-0-3-3-3-|--0-2-2-2--------0-2-2-0-3-3-3-|


  S S S S   E (022100@1)  E (022100@1)S S S S S S S S    S S S S   E (022100@1)  E (022100@1)S S S S S S S S  
------------------------------------|------------------------------------|
------------------------------------|------------------------------------|
------------------------------------|------------------------------------|
----------3--3------------------|----------3--3------------------|
--0-2-2-2-------------0-2-2-0-3-3-3-|--0-2-2-2-------------0-2-2-0-3-3-3-|
--0-2-2-2-------------0-2-2-0-3-3-3-|--0-2-2-2-------------0-2-2-0-3-3-3-|


  S S S S   E (022100@1)  E (022100@1)S S S S S S S S    S S S S   E (022100@1)  E (022100@1)S S S S S S S S  
------------------------------------|------------------------------------|
------------------------------------|------------------------------------|
------------------------------------|------------------------------------|
----------3--3------------------|----------3--3------------------|
--0-2-2-2-------------0-2-2-0-3-3-3-|--0-2-2-2-------------0-2-2-0-3-3-3-|
--0-2-2-2-------------0-2-2-0-3-3-3-|--0-2-2-2-------------0-2-2-0-3-3-3-|


  S S S S  S  S  S  S  S  S E (022100@1) S  S  S  S    S S S S S  S S S S S E (022100@1)S S S S  
-------------------------------------------|----------------------------------|
-------------------------------------------|----------------------------------|
----------10-10-10-10-10-10----10-10-10-10-|----------7S-9-9-9-9-9----9-9-9-9-|
-------------------------------------------|----------------------------------|
--0-2-2-2--8--8--8--8--8--8-----8--8--8--8-|--0-2-2-2-5S-7-7-7-7-7----7-7-7-7-|
--0-2-2-2----------------------------------|--0-2-2-2-------------------------|


  S S S S  S  S  S  S  S  S E (022100@1) S  S  S  S    S S S S S  S S S S S E (022100@1)S S S S  
-------------------------------------------|----------------------------------|
-------------------------------------------|----------------------------------|
----------10-10-10-10-10-10----10-10-10-10-|----------7S-9-9-9-9-9----9-9-9-9-|
-------------------------------------------|----------------------------------|
--0-2-2-2--8--8--8--8--8--8-----8--8--8--8-|--0-2-2-2-5S-7-7-7-7-7----7-7-7-7-|
--0-2-2-2----------------------------------|--0-2-2-2-------------------------|


  Q.     E (022100@1)Q    Q       E (022100@1)Q.     H           Q.     E (022100@1)Q    Q     
----------------------|---------------------|----------------------|
----------------------|---------------------|----------------------|
----------------------|---------------------|----------------------|
----------------------|---------------------|----------------------|
--2------0--L----8----|--L--5------L--------|--2------0--L----8----|
--2------0--L----8----|--L--5------L--------|--2------0--L----8----|


  W                   Q.     E (022100@1)Q    Q       E (022100@1)Q.     H         
-------------------|----------------------|---------------------|
-------------------|----------------------|---------------------|
-------------------|----------------------|---------------------|
-------------------|----------------------|---------------------|
--L----------------|--2------0--L----8----|--L--5------L--------|
--L----------------|--2------0--L----8----|--L--5------L--------|


  Q.     E (022100@1)Q    Q       W                   S S S S S S S S S S S S S S S S  
----------------------|-------------------|----------------------------------|
----------------------|-------------------|----------------------------------|
----------------------|-------------------|--9-9-9-9-9-9-9-9-9-9-9-9-9-9-9-9-|
----------------------|-------------------|----------------------------------|
--2------0--L----8----|--L----------------|--7-7-7-7-7-7-7-7-7-7-7-7-7-7-7-7-|
--2------0--L----8----|--L----------------|----------------------------------|


  S S S S S S S S S S S S S S S S  
----------------------------------|
----------------------------------|
--7-7-7-7-7-7-7-7-7-7-7-7-7-7-7-7-|
----------------------------------|
--5-5-5-5-5-5-5-5-5-5-5-5-5-5-5-5-|
----------------------------------|


   S  S  S  S  S  S  S  S  S  S  S  S  S  S  S  S  
--------------------------------------------------|
--------------------------------------------------|
--10-10-10-10-10-10-10-10-10-10-10-10-10-10-10-10-|
--------------------------------------------------|
---8--8--8--8--8--8--8--8--8--8--8--8--8--8--8--8-|
--------------------------------------------------|


   S   S  S  S  S  S  S  S     E (022100@1) S  S     E (022100@1) E (022100@1)  
----------------------------------------------------|
----------------------------------------------------|
--12S-10-10-10-10-10-10-10-10g12--12-12-12g14--14S--|
----------------------------------------------------|
--10S--8--8--8--8--8--8--8--8g10--10-10-10g12--12S--|
----------------------------------------------------|


  S S S S S S S S S S S S S S S S    S S S S S S S S S S S S S S S S  
----------------------------------|----------------------------------|
----------------------------------|----------------------------------|
--9-9-9-9-9-9-9-9-9-9-9-9-9-9-9-9-|--7-7-7-7-7-7-7-7-7-7-7-7-7-7-7-7-|
----------------------------------|----------------------------------|
--7-7-7-7-7-7-7-7-7-7-7-7-7-7-7-7-|--5-5-5-5-5-5-5-5-5-5-5-5-5-5-5-5-|
----------------------------------|----------------------------------|


   S  S  S  S  S  S  S  S  S  S  S  S  S  S  S  S  
--------------------------------------------------|
--------------------------------------------------|
--10-10-10-10-10-10-10-10-10-10-10-10-10-10-10-10-|
--------------------------------------------------|
---8--8--8--8--8--8--8--8--8--8--8--8--8--8--8--8-|
--------------------------------------------------|


      E (022100@1) S  S  S  S  S  S     E (022100@1) S  S     E (022100@1) E (022100@1)  
----------------------------------------------------|
----------------------------------------------------|
--10g12--12-12-12-12-12-12-12g14--14-14-12g14--14S--|
----------------------------------------------------|
---8g10--10-10-10-10-10-10-10g12--12-12-10g12--12S--|
----------------------------------------------------|


  S S S S S S S S S S S S S S S S    S S S S S S S S S S S S S S S S  
----------------------------------|----------------------------------|
----------------------------------|----------------------------------|
----------------------------------|----------------------------------|
----------------------------------|----------------------------------|
--2-2-2-2-2-2-2-2-2-2-2-2-2-2-2-2-|--2-2-2-2-2-2-2-2-2-2-2-2-2-2-2---|
--2-2-2-2-2-2-2-2-2-2-2-2-2-2-2-2-|--2-2-2-2-2-2-2-2-2-2-2-2-2-2-2-0-|


  E (022100@1)S S S S E (022100@1)S S E (022100@1)Q       S  S S S S S S S S S S S S S S S  
----------------------------|-----------------------------------|
----------------------------|-----------------------------------|
----------------------------|--7S-9-9-9-9-9-9-9-9-9-9-9-9-9-9-9-|
----------------------------|-----------------------------------|
----------------------------|--5S-7-7-7-7-7-7-7-7-7-7-7-7-7-7-7-|
--2--0-2-L-0-2--0-2-0--2----|-----------------------------------|


  S S S S Q    S S S S S S S S    S S S S Q    S S S S S S S S  
-------------------------------|-------------------------------|
-------------------------------|-------------------------------|
-------------------------------|-------------------------------|
-------------------------------|-------------------------------|
--0-2-2-2--------0-2-2-0-3-3-3-|--0-2-2-2--------0-2-2-0-3-3-3-|
--0-2-2-2--------0-2-2-0-3-3-3-|--0-2-2-2--------0-2-2-0-3-3-3-|


  S S S S Q    S S S S S S S S    S S S S Q    S S S S S S S S  
-------------------------------|-------------------------------|
-------------------------------|-------------------------------|
-------------------------------|-------------------------------|
-------------------------------|-------------------------------|
--0-2-2-2--------0-2-2-0-3-3-3-|--0-2-2-2--------0-2-2-0-3-3-3-|
--0-2-2-2--------0-2-2-0-3-3-3-|--0-2-2-2--------0-2-2-0-3-3-3-|


  S S S S   E (022100@1)  E (022100@1)S S S S S S S S    S S S S   E (022100@1)  E (022100@1)S S S S S S S S  
------------------------------------|------------------------------------|
------------------------------------|------------------------------------|
------------------------------------|------------------------------------|
----------3--3------------------|----------3--3------------------|
--0-2-2-2-------------0-2-2-0-3-3-3-|--0-2-2-2-------------0-2-2-0-3-3-3-|
--0-2-2-2-------------0-2-2-0-3-3-3-|--0-2-2-2-------------0-2-2-0-3-3-3-|


  S S S S   E (022100@1)  E (022100@1)S S S S S S S S    S S S S   E (022100@1)  E (022100@1)S S S S S S S S  
------------------------------------|------------------------------------|
------------------------------------|------------------------------------|
------------------------------------|------------------------------------|
----------3--3------------------|----------3--3------------------|
--0-2-2-2-------------0-2-2-0-3-3-3-|--0-2-2-2-------------0-2-2-0-3-3-3-|
--0-2-2-2-------------0-2-2-0-3-3-3-|--0-2-2-2-------------0-2-2-0-3-3-3-|


  S S S S  S  S  S  S  S  S E (022100@1) S  S  S  S    S S S S S  S S S S S E (022100@1)S S S S  
-------------------------------------------|----------------------------------|
-------------------------------------------|----------------------------------|
----------10-10-10-10-10-10----10-10-10-10-|----------7S-9-9-9-9-9----9-9-9-9-|
-------------------------------------------|----------------------------------|
--0-2-2-2--8--8--8--8--8--8-----8--8--8--8-|--0-2-2-2-5S-7-7-7-7-7----7-7-7-7-|
--0-2-2-2----------------------------------|--0-2-2-2-------------------------|


  S S S S  S  S  S  S  S  S E (022100@1) S  S  S  S    S S S S S  S S S S S E (022100@1)S S S S  
-------------------------------------------|----------------------------------|
-------------------------------------------|----------------------------------|
----------10-10-10-10-10-10----10-10-10-10-|----------7S-9-9-9-9-9----9-9-9-9-|
-------------------------------------------|----------------------------------|
--0-2-2-2--8--8--8--8--8--8-----8--8--8--8-|--0-2-2-2-5S-7-7-7-7-7----7-7-7-7-|
--0-2-2-2----------------------------------|--0-2-2-2-------------------------|


  Q.     E (022100@1)Q    Q       E (022100@1)Q.     H           Q.     E (022100@1)Q    Q     
----------------------|---------------------|----------------------|
----------------------|---------------------|----------------------|
----------------------|---------------------|----------------------|
----------------------|---------------------|----------------------|
--2------0--L----8----|--L--5------L--------|--2------0--L----8----|
--2------0--L----8----|--L--5------L--------|--2------0--L----8----|


  W                   Q.     E (022100@1)Q    Q       E (022100@1)Q.     H         
-------------------|----------------------|---------------------|
-------------------|----------------------|---------------------|
-------------------|----------------------|---------------------|
-------------------|----------------------|---------------------|
--L----------------|--2------0--L----8----|--L--5------L--------|
--L----------------|--2------0--L----8----|--L--5------L--------|


  Q.     E (022100@1)Q    Q       W                   S S S S S S S S S S S S S S S S  
----------------------|-------------------|----------------------------------|
----------------------|-------------------|----------------------------------|
----------------------|-------------------|--9-9-9-9-9-9-9-9-9-9-9-9-9-9-9-9-|
----------------------|-------------------|----------------------------------|
--2------0--L----8----|--L----------------|--7-7-7-7-7-7-7-7-7-7-7-7-7-7-7-7-|
--2------0--L----8----|--L----------------|----------------------------------|


  S S S S S S S S S S S S S S S S  
----------------------------------|
----------------------------------|
--7-7-7-7-7-7-7-7-7-7-7-7-7-7-7-7-|
----------------------------------|
--5-5-5-5-5-5-5-5-5-5-5-5-5-5-5-5-|
----------------------------------|


   S  S  S  S  S  S  S  S  S  S  S  S  S  S  S  S  
--------------------------------------------------|
--------------------------------------------------|
--10-10-10-10-10-10-10-10-10-10-10-10-10-10-10-10-|
--------------------------------------------------|
---8--8--8--8--8--8--8--8--8--8--8--8--8--8--8--8-|
--------------------------------------------------|


   S   S  S  S  S  S  S  S     E (022100@1) S  S     E (022100@1) E (022100@1)  
----------------------------------------------------|
----------------------------------------------------|
--12S-10-10-10-10-10-10-10-10g12--12-12-12g14--14S--|
----------------------------------------------------|
--10S--8--8--8--8--8--8--8--8g10--10-10-10g12--12S--|
----------------------------------------------------|


  S S S S S S S S S S S S S S S S    S S S S S S S S S S S S S S S S  
----------------------------------|----------------------------------|
----------------------------------|----------------------------------|
--9-9-9-9-9-9-9-9-9-9-9-9-9-9-9-9-|--7-7-7-7-7-7-7-7-7-7-7-7-7-7-7-7-|
----------------------------------|----------------------------------|
--7-7-7-7-7-7-7-7-7-7-7-7-7-7-7-7-|--5-5-5-5-5-5-5-5-5-5-5-5-5-5-5-5-|
----------------------------------|----------------------------------|


   S  S  S  S  S  S  S  S  S  S  S  S  S  S  S  S  
--------------------------------------------------|
--------------------------------------------------|
--10-10-10-10-10-10-10-10-10-10-10-10-10-10-10-10-|
--------------------------------------------------|
---8--8--8--8--8--8--8--8--8--8--8--8--8--8--8--8-|
--------------------------------------------------|


      E (022100@1) S  S  S  S  S  S     E (022100@1) S  S     E (022100@1) E (022100@1)  
----------------------------------------------------|
----------------------------------------------------|
--10g12--12-12-12-12-12-12-12g14--14-14-12g14--14S--|
----------------------------------------------------|
---8g10--10-10-10-10-10-10-10g12--12-12-10g12--12S--|
----------------------------------------------------|


  S S S S S S S S S S S S S S S S    S S S S S S S S S S S S S S S S  
----------------------------------|----------------------------------|
----------------------------------|----------------------------------|
--9-9-9-9-9-9-9-9-9-9-9-9-9-9-9-9-|--9-9-9-9-9-9-9-9-9-9-9-9-9-9-9-9-|
----------------------------------|----------------------------------|
--7-7-7-7-7-7-7-7-7-7-7-7-7-7-7-7-|--7-7-7-7-7-7-7-7-7-7-7-7-7-7-7-7-|
----------------------------------|----------------------------------|


   S  S  S  S  S  S  S  S  S  S  S  S  S  S  S  S  
--------------------------------------------------|
--------------------------------------------------|
--10-10-10-10-10-10-10-10-10-10-10-10-10-10-10-10-|
--------------------------------------------------|
---8--8--8--8--8--8--8--8--8--8--8--8--8--8--8--8-|
--------------------------------------------------|


   S  S  S  S  S  S  S  S     E (022100@1) S  S     E (022100@1) E (022100@1)  
---------------------------------------------------|
---------------------------------------------------|
--10-10-10-10-10-10-10-10-10g12--12-12-12g14--14S--|
---------------------------------------------------|
---8--8--8--8--8--8--8--8--8g10--10-10-10g12--12S--|
---------------------------------------------------|


  S S S S S S S S S S S S S S S S    S S S S S S S S S S S S S S S S  
----------------------------------|----------------------------------|
----------------------------------|----------------------------------|
--9-9-9-9-9-9-9-9-9-9-9-9-9-9-9-9-|--9-9-9-9-9-9-9-9-9-9-9-9-9-9-9-9-|
----------------------------------|----------------------------------|
--7-7-7-7-7-7-7-7-7-7-7-7-7-7-7-7-|--7-7-7-7-7-7-7-7-7-7-7-7-7-7-7-7-|
----------------------------------|----------------------------------|


   S  S  S  S E (022100@1) S  S  S  S E (022100@1) S  E.      S S S S E (022100@1)S S S S E (022100@1)S S E (022100@1) 
-----------------------------------------|-------------------------------|
-----------------------------------------|-------------------------------|
--10-10-10-10----10-10-10-10----10-10S---|-------------------------------|
-----------------------------------------|--2-2-2-2----2-2-2-2----2-2----|
---8--8--8--8-----8--8--8--8-----8--8S---|--2-2-2-2----2-2-2-2----2-2----|
-----------------------------------------|--2-2-2-2----2-2-2-2----2-2----|


  S S S S E (022100@1)S S S S E (022100@1)S S E (022100@1)   S S S S E (022100@1)S S S S E (022100@1)S S E (022100@1) 
-------------------------------|-------------------------------|
-------------------------------|-------------------------------|
-------------------------------|-------------------------------|
--2-2-2-2----2-2-2-2----2-2----|--2-2-2-2----2-2-2-2----2-2----|
--2-2-2-2----2-2-2-2----2-2----|--2-2-2-2----2-2-2-2----2-2----|
--2-2-2-2----2-2-2-2----2-2----|--2-2-2-2----2-2-2-2----2-2----|


  S S S S E (022100@1)S S S S E (022100@1)S S E (022100@1)   S S S S E (022100@1)S S S S E (022100@1)S S E (022100@1) 
-------------------------------|-------------------------------|
-------------------------------|-------------------------------|
-------------------------------|-------------------------------|
--2-2-2-2----2-2-2-2----2-2-0--|--2-2-2-2----2-2-2-2----2-2----|
--2-2-2-2----2-2-2-2----2-2-0--|--2-2-2-2----2-2-2-2----2-2----|
--2-2-2-2----2-2-2-2----2-2-0--|--2-2-2-2----2-2-2-2----2-2----|


  S S S S E (022100@1)S S S S E (022100@1)S S E (022100@1)   S S S S E (022100@1)S S S S E (022100@1)S S E (022100@1) 
-------------------------------|-------------------------------|
-------------------------------|-------------------------------|
-------------------------------|-------------------------------|
--2-2-2-2----2-2-2-2----2-2----|--2-2-2-2----2-2-2-2----2-2----|
--2-2-2-2----2-2-2-2----2-2----|--2-2-2-2----2-2-2-2----2-2----|
--2-2-2-2----2-2-2-2----2-2----|--2-2-2-2----2-2-2-2----2-2----|


  S S S S E (022100@1)S S S S E (022100@1)S S E (022100@1)  
-------------------------------||
-------------------------------||
-------------------------------||
--2-2-2-2----2-2-2-2----2-2----||
--2-2-2-2----2-2-2-2----2-2----||
--2-2-2-2----2-2-2-2----2-2----||








Duration Legend
---------------
W - whole
H - half
Q - quarter
E - 8th
S - 16th
T - 32nd
X - 64th
. - note dotted
|-n-|  - n-tuplets


Tablature Legend
----------------
L - tied note
x - dead note
g - grace note
(n) - ghost note
> - accentuded note
NH - natural harmonic
AH - artificial harmonic
TH - tapped harmonic
SH - semi harmonic
PH - pitch harmonic
h - hammer on
p - pull off
b - bend
br - bendRelease
pb - preBend
pbr - preBendRelease
brb - bendReleaseBend
n/ - tremolo bar dip
n - tremolo bar dive
-/n - tremolo bar Release up
/n - tremolo bar inverted dip
/n - tremolo bar return
-n - tremolo bar Release down
S - shift slide
s - legato slide
/ -  slide into from below or out of upwards
 -  slide into from above or out of downwards
~ - vibrato
W - wide vibrato
tr - trill
TP - tremolo picking
T - tapping
S - slap
P - pop
< - fade in
^ - brush up
v - brush down


Show more