Band- Sevendust
Song- Redefine

Dropped D tuning (low to high D-A-D-G-B-E respectively)

Notes: Play with Distortion,this tab works good with one guitar
The song uses two guitars.
Correction to this song..originally tabbed it in Db,but its better in Dropped "D"



Intro Riff
|----------------------------------------------------------|
|----------------------------------------------------------|
|----------------------------------------------------------|
|----------------------------------------------------------|
|----------------------------------------------------------|
|------------9-9-(9-10)---7------9-9-9-10-9---------------|x 2
      PM...................................        

Riff 1

|-----------------------------------------------------19-------|
|-----------------------------------------------------19-------|
|---11--11-----[-11--11--11--11-]-----11--11-------------------|
|---11--11-----[-11--11--11--11-]-----11--11-------------------|x8
|----9---9-----[--9---9---9---9-]------9---9-------------------|
|----9---9-----[--9---9---9---9-]------9---9-------------------|
     D (xx0232@1)D (xx0232@1)      D (xx0232@1)U    D (xx0232@1)  U        D (xx0232@1) D (xx0232@1)   
              (above strummed fast)

[Interlude] During Bass riff
|--------------------------------------------------------|
|--------------------------------------------------------|
|--------------------------------------------------------|
|--------------------------------------------------------|x4
|-2~-------2~-------------------------------------------|
|--------------------------------------------------------|
  slide down slightly 

[Chorus 
|--------------------------------------------------------|
|--------------------------------------------------------|
|------11------------------------------------------------|x1 (first time)
|------11-----5-----3-----2---3--------------------------|
|-------9-----5-----3-----2---3--------------------------|
|-------9-----5-----3-----2---3--------------------------|


Intro Riff  x2
Riff 1  x
Interlude fill x4 measures
Chorus x 1

Riff 1 x2  quik break
riff 1 x4
Interlude riffx 4 measures
Chorus x 2
Riff 1 with harmonic's x4
Interlude riff x 4 measures again
Break
chorusx 2
Riff 1x 4

Show more