SPLINTER tuning - B F# B E F# B

X - muted string		(note). - immediately mute note
/ - slide up            (note)  - palm mute
b- (x24432@1)bend,   r - release   .                  (note)* - harmonic
h- (x2444x@1)hammer on             p - pull off      ^(note)  - pinch harmonic

Intro 1
(Guitar 1, Guitar 2 in [brackets])
|-0-------------------------------------0-------------------------------------0--|
|-2----12-12-12-13-10-10-13-8-8-12-7-8--2----12-12-12-13-12-12-15-12-12-10h12----|
|-2---[10-10-10-12--9--9-12-7-7-12-5-7]-2---[10-10-10-12-10-10-14-10-10--9h10--]-|
|-0-------------------------------------0----------------------------------------|
|-0-------------------------------------0----------------------------------------|
|-0-------------------------------------0----------------------------------------|

|-0-------------------------------------0-----0--0--0--0--0--0--0--0--0--0--0--0-|
|-2----12-12-12-13-10-10-13-8-8-12-7-8--2----12-12-12-12-12-12-15-15-15-15-15-15-|
|-2---[10-10-10-12--9--9-12-7-7-12-5-7]-2----------------------------------------|
|-0-------------------------------------0----------------------------------------|
|-0-------------------------------------0----------------------------------------|
|-0-------------------------------------0----------------------------------------|

Intro 2 
(Guitar 1)
|--0--0--0--0--0--0--0--0--0--0--0--0--0--0--0--0--0--0--0--0--0--0--0--0------|
|-17-17-17-17-17-17-17-17-17-17-17-17-17-17-17-17-17-17-17-17-17-17b18b18------|
|------------------------------------------------------------------------------|
|------------------------------------------------------------------------------|
|------------------------------------------------------------------------------|
|------------------------------------------------------------------------------|

|--0--0--0--0--0--0--0--0--0--0--0--0--0--0--0--0--0--0--0--0--0---------------|
|-17-17-17-17-17-17-17-17-17-17-17-17-17-17-17-17-17-17-17-17-17-20~-----------|
|------------------------------------------------------------------------------|
|------------------------------------------------------------------------------|
|------------------------------------------------------------------------------|
|------------------------------------------------------------------------------|

(Guitar 2)
|-----------------------------------------------------------------------------------------------|
|-----------------------------------------------------------------------------------------------|
|-----------------------------------------------------------------------------------------------|
|-----------------------------------------------------------------------------------------------|
|-------------------------5---8-------5---7-------------------------------5---8-------7---10-8~-|
|-0.--0.--0-0-0.--0.--0-0-------0-0-0-------5-4-3-0.--0.--0-0-0.--0.--0-0-------0-0-0-----------|
  .   .   . . .   .   . .       . . .       . . . .   .   . . .   .   . .       . . .

(Guitar 3)
|-----------------------------------------------------------------------------------------------|
|-----------------------------------------------------------------------------------------------|
|-----------------------------------------------------------------------------------------------|
|-----------------------------------------------------------------------------------------------|
|-------------------------5---8-------5---7-------------------------------8--12-------10--13-12-|
|-0.--0.--0-0-0.--0.--0-0-------0-0-0-------5-4-3-0.--0.--0-0-0.--0.--0-0-------0-0-0-----------|
  .   .   . . .   .   . .       . . .       . . . .   .   . . .   .   . .       . . .

Verse
|-------------------------------------------------------------------------------------------------|
|-------------------------------------------------------------------------------------------------|
|-------------8-----------8-----------------------------------8-----------8-----------------------|
|-------------x-----------x-----------------------------------x-----------x-----------------------|
|-------------6-----------6-----------------------------------6-----------6-----------------------|
|-0.--0.--0-0-----0.--0-0----0.-------------------0---0.--0-0-----0.--0-0----0.-------------------|
  .   .   . .     .   . .                         .   .   . .     .   . .

|-------------------------------------------------------------------------------------------------|
|-------------------------------------------------------------------------------------------------|
|-------------15----------14----------------------------------15----------14----------------------|
|--------------x-----------x-----------------------------------x-----------x----------------------|
|-------------13----------12----------------------------------13----------12----------------------|
|-0.--0.--0-0-----0.--0-0-----0---0-0-3*3*3*1-1-1-0---0.--0-0-----0.--0-0-----0.--0-0-3*3*3*1-1-1-|
  .   .   . .     .   . .     .   . .             .   .   . . .   .   . .     .   . .

Pre Chorus
|--------------------------------------------------------------------------|
|--------------------------------------------------------------------------|
|--------------------------------------------------------------------------|
|-2--------2--------2------------------2--------2--------2-----------------|
|--------------------------------------------------------------------------|
|----1--1-----1--1-----1--1--1-2-2-2------1--1-----1--1-----1--1--1-2-2-2--|

|------------------------------------------------------------|
|------------------------------------------------------------|
|------------------------------------------------------------|
|-------------0.--0.--------------------0.--0.---------------|
|-3-2-0-0-2-3-0.--0.--------3-2-0-0-2-3-0.--0.-----3-2-0-0---|
|-3-2-0-0-2-3-0.--0.--------3-2-0-0-2-3-0.--0.-----3-2-0-0---|
  . . . . . .               . . . . . .            . . . .

Chorus 
(Guitar 1)
|-----------------------------------------------------------------------------------------------|
|-----------------------------------------------------------------------------------------------|
|-----------------------------------------------------------------------------------------------|
|-----------------------------------------------------------------------------------------------|
|-------------------------5---8-------5---7-------------------------------5---8-------7---10-8~-|
|-0.--0.--0-0-0.--0.--0-0-------0-0-0-------5-4-3-0.--0.--0-0-0.--0.--0-0-------0-0-0-----------|
  .   .   . . .   .   . .       . . .       . . . .   .   . . .   .   . .       . . .

(Guitar 2)
|-----------------------------------------------------------------------------------------------|
|-----------------------------------------------------------------------------------------------|
|-----------------------------------------------------------------------------------------------|
|-----------------------------------------------------------------------------------------------|
|-------------------------5---8-------5---7-------------------------------8--12-------10--13-12-|
|-0.--0.--0-0-0.--0.--0-0-------0-0-0-------5-4-3-0.--0.--0-0-0.--0.--0-0-------0-0-0-----------|
  .   .   . . .   .   . .       . . .       . . . .   .   . . .   .   . .       . . .

(Both Guitars)
|----------------------------------------------|
|----------------------------------------------|
|----------------------------------------------|
|-8-8-8-8-8-8-8-8-8-8-8-8-5-5-5-5-5-5-5-5-5-5\-|
|-8-8-8-8-8-8-8-8-8-8-8-8-5-5-5-5-5-5-5-5-5-5\-|
|-8-8-8-8-8-8-8-8-8-8-8-8-5-5-5-5-5-5-5-5-5-5\-|

End of Chorus
|-----------------------------------------------------------------------------------------------|
|-----------------------------------------------------------------------------------------------|
|-----------------------------------------------------------------------------------------------|
|-8-8-8-8-8-8-8-8-8-8-8-8-5-5-5-5-5-5-5-5-5-5-5-5-5-5-5-3-3-3-3-3-3-3-3-3-3-3-3-1-----3----1----|
|-8-8-8-8-8-8-8-8-8-8-8-8-5-5-5-5-5-5-5-5-5-5-5-5-5-5-5-3-3-3-3-3-3-3-3-3-3-3-3-1-----3----1----|
|-8-8-8-8-8-8-8-8-8-8-8-8-5-5-5-5-5-5-5-5-5-5-5-5-5-5-5-3-3-3-3-3-3-3-3-3-3-3-3-1-----3----1----|

Bridge 1
(Guitar 1)
|--0--0--0--0--0--0--0--0--0--0--0--0--0--0--0--0--0--0--0--0--0--0--0--0-|
|-17-17-17-17-17-17-17-17-17-17-17-17-17-17-17-16-16-16-17-17-17-19-19-19-|
|-------------------------------------------------------------------------|
|-------------------------------------------------------------------------|
|-------------------------------------------------------------------------|
|-------------------------------------------------------------------------|

|--0--0--0--0--0--0--0--0--0--0--0--0--0--0--0--0--0--0--0--0--0--0--0--0-|
|-20-20-20-17-17-17-17-17-17-17-17-17-17-17-17-17-17-17-13-13-13-12-12-12-|
|-------------------------------------------------------------------------|
|-------------------------------------------------------------------------|
|-------------------------------------------------------------------------|
|-------------------------------------------------------------------------|

|--0--0--0--0--0--0--0--0--0--0--0--0--0--0--0--0--0--0--0--0--0--0--0--0-|
|-17-17-17-17-17-17-17-17-17-17-17-17-17-17-17-17-17-17-19-19-19-20-20-20-|
|-------------------------------------------------------------------------|
|-------------------------------------------------------------------------|
|-------------------------------------------------------------------------|
|-------------------------------------------------------------------------|

|--0--0--0--0--0--0--0--0--0--0--0--0--0--0--0--0--0--0--0--0--0--0-------|
|-17-17-17-17-17-17-17-17-17-17-17-17-19-19-19-20-20-20-22-22-22-22b24----|
|-------------------------------------------------------------------------|
|-------------------------------------------------------------------------|
|-------------------------------------------------------------------------|
|-------------------------------------------------------------------------|

(Guitar 2 second half)
|---------------------------------------------------------------------------------------|
|---------------------------------------------------------------------------------------|
|-000---0-0-0-0-0-0-0-0---000---0-0-0-0-0-0---000---0-0-0-0-0-0-0-0---000---0-0-0-0-0-0-|
  ...   . . . . . . . .   ...   . . . . . .   ...   . . . . . . . .   ...   . . . . . .

Bridge 2
(Guitar 1 [I really have no clue here, this is my best guess. Use a whammy pedal!!!])
|------------------------------------------------------|
|------------------------------------------------------|
|-14--14-14-14-14-14-14-14-14--14--14-14-14-14-14-12---|
|------------------------------------------------------|
|------------------------------------------------------|
|------------------------------------------------------|

|------------------------------------------------------|
|------------------------------------------------------|
|-14--14-14-14-14-14-14-14-14--14--14-14-12-14-12-10\--|
|------------------------------------------------------|
|------------------------------------------------------|
|------------------------------------------------------|

|------------------------------------------------------|
|------------------------------------------------------|
|-14--14-14-14-14-14-14-14-14--14--14-14-14-14-15-17/--|
|------------------------------------------------------|
|------------------------------------------------------|
|------------------------------------------------------|

|------------------------------------------------------|
|------------------------------------------------------|
|-14--14-14-14-14-14-14-14-14--14--14-14-12-14-12-10\--|
|------------------------------------------------------|
|------------------------------------------------------|
|------------------------------------------------------|

(Guitar 2)
|---------------------------------------------------------------------------------------|
|---------------------------------------------------------------------------------------|(x2)
|-0-----0-0-0-0-0-0-0-0---000---0-0-0-0-0-0---000---0-0-0-0-0-0-0-0---000---0-0-0-0-0-0-|
  .     . . . . . . . .   ...   . . . . . .   ...   . . . . . . . .   ...   . . . . . .

Bridge 3
(fingerpicked)
|--------0----------------0---------0----------------0--|
|-----0-----0------0-------------0-----0------0---------|
|-10-----------12-----14-----10-----------12-----14-----|
|-------------------------------------------------------|
|-------------------------------------------------------|
|-12-----------14-----15-----12-----------14-----15-----|

(Guitar 1)                    (Guitar 2)
|-------------------------|   |-------------------------|
|-------------------------|   |-------------------------|
|-------------------------|   |-----10---12---15--------|
|-8----5----3----1--------|   |-8----x----x----x--------|
|-8----5----3----1--------|   |-8----8---10---13--------|
|-8----5----3----1--------|   |-8-----------------------|
Show more