Band - Sevendust
Song - Suffer
Album - Alpha (2007)
Tuning - B,Gb,B,E,Ab,Db

Notes: I'm still missing some background parts on this songs and a few others that I've 
already so bare with me for awhile. This song is real easy, you should be able to learn 
in 5 minutes.

Intro
|----------------------------|
|----------------------------|
|----------------------------|
|-1--------1--------1--------|  Repeats
|-1-0--0-0-1-0--0-0-1-0--0-0-|
|-1-0--0-0-1-0--0-0-1-0--0-0-|
    .  . .   .  . .   .  . .

Heavy Intro
|---------------------------|
|---------------------------|
|---------------------------|
|---------------------------|  Repeats
|---------------------------|
|-1p0-1p0-0--0-0-0--0-0-0-0-|

Verse - No Guitar

Chorus
|------------------------------------------------|
|------------------------------------------------|
|------------------------------------------------|
|-0--------10--------8-8-8-8-8-8-8-8-7-7-7-7-7-7-|
|-0-x--x-x-10-x--x-x-8-8-8-8-8-8-8-8-7-7-7-7-7-7-|
|-0-x--x-x-10-x--x-x-8-8-8-8-8-8-8-8-7-7-7-7-7-7-|

|--------------------------------------------------------------|
|--------------------------------------------------------------|
|----------5/7-7-7-7-7-----------------7/9-9-9-9-9-------------|
|-0--------x-x-x-x-x-x-5-5-5-5-5-5-5-5-x-x-x-x-x-x-8-8-8-8-8-8-|
|-0-x--x-x-3/5-5-5-5-5-5-5-5-5-5-5-5-5-5/7-7-7-7-7-8-8-8-8-8-8-|
|-0-x--x-x-------------5-5-5-5-5-5-5-5-------------8-8-8-8-8-8-|

Bridge - Not Complete yet
|------------------------------|
|------------------------------|
|------------------------------|
|------------------------------|
|------------------------------|
|------------------------------|

That's all I got for right now, and I completely screwed the chorus up to Story Of You 
so I'll have to fix that and finish this.

Show more