-------------------------------------------------------------------------------
			     Shining - Frtvivlan, Min Arvedel
-------------------------------------------------------------------------------
Tabbed by: CMFlesh
Email: cmflesh@mail.suomi.net

Tuning: D

This is not supposed to be 100% straight translation, but more to give you a hint of the 
riffs which are used on the song. Use your ear.


Main riff

D||-------------------4-----|--------4--------------------|
A||-------------------4--4--|--4--4--4--4--4--------------|
F||-------------------4--4--|--4--4--4--4--4--------------|
C||-----------6----6--6--6--|--6--6--6--6--6--x-x-x-x-x-x-|
G||--2--------6----6--6--6--|--6--6--6--6--6--x-x-x-x-x-x-|
D||-----5--2--4----4--4--4--|--4--4--4--4--4--x-x-x-x-x-x-|


----------------------------|--------------------------------|
----------------------------|--------------------------------|
----------------------------|--------------------------------|
----------------------------|--4--4--------------------------|
--2--------3----3-----------|--2--2--2h-5p-2--3--3-----------|
-----5--2--1----1--1h-4p-1--|-----------------1--1--1h-4p-1--|


Riff 2 *Not sure if you should play it with also B string as 0.

--0-0-0-0-0-0-0-0-0-0-0-0-0-0-0-0-|--0-0-0-0-0-0-0-0-0-0-0-0-0-0-0-0-|
--4-4-4-4-4-4-4-4-4-4-4-4-4-4-4-4-|--4-4-4-4-4-4-4-4-4-4-4-4-4-4-4-4-|
--4-4-4-4-4-4-4-4-4-4-4-4-4-4-4-4-|--4-4-4-4-4-4-4-4-4-4-4-4-4-4-4-4-|
--6-6-6-6-6-6-6-6-6-6-6-6-6-6-6-6-|--6-6-6-6-6-6-6-6-6-6-6-6-6-6-6-6-|
--6-6-6-6-6-6-6-6-6-6-6-6-6-6-6-6-|--6-6-6-6-6-6-6-6-6-6-6-6-6-6-6-6-|
----------------------------------|----------------------------------|


--0-0-0-0-0-0-0-0-0-0-0-0-0-0-0-0-|--0-0-0-0-0-0-0-0-0-0-0-0-0-0-0-0-|
--5-5-5-5-5-5-5-5-5-5-5-5-5-5-5-5-|--5-5-5-5-5-5-5-5-5-5-5-5-5-5-5-5-|
--5-5-5-5-5-5-5-5-5-5-5-5-5-5-5-5-|--5-5-5-5-5-5-5-5-5-5-5-5-5-5-5-5-|
--7-7-7-7-7-7-7-7-7-7-7-7-7-7-7-7-|--7-7-7-7-7-7-7-7-7-7-7-7-7-7-7-7-|
--7-7-7-7-7-7-7-7-7-7-7-7-7-7-7-7-|--7-7-7-7-7-7-7-7-7-7-7-7-7-7-7-7-|
----------------------------------|----------------------------------|


Riff before acoustic part

-----------------------|-----------------------|
-----------------------|-----------------------|
-----------------------|-----------------------|
-----------------------|-----------------------|
--2--------------------|--2--------------------|
-----5--2--4-----------|-----5--2--1-----------|


Acoustic

----------------------------|-----------------------|
------------11--------------|-----------------------|
---------8------8-----8-----|---------8-------------|
------9------------9-----9--|------9----------------|
--11------------------------|--11-------------------|
----------------------------|-----------------------|


----------------------------|-------------------------|
------------11--------------|-------------0-----------|
---------8------8-----8-----|----------9--------------|
------9------------9-----9--|------10-----------------|
--11------------------------|--12---------------------|
----------------------------|-------------------------|


----------------------------|----------------0-------|
------------11--------------|------------------------|
---------8------8-----8-----|---------8--------------|
------9------------9-----9--|------9-----------------|
--11------------------------|--11--------------------|
----------------------------|------------------------|


----------------------------|-------------------------|
------------11--------------|-------------0-----------|
---------8------8-----8-----|----------9--------------|
------9------------9-----9--|------10-----------------|
--11------------------------|--12---------------------|
----------------------------|-------------------------|


Acoustic 2

--------------0-----------|--------0------0--0----|
-----------7-----7--------|--------7------7--7----|
--------4-----------4-----|--------4------4--4----|
-----5-----------------5--|-----5-----------------|
--7-----------------------|--7--------------------|
--------------------------|-----------------------|


--------------0-----------|-------0------0--0----|
-----------4-----4--------|-------4------4--4----|
--------1-----------1-----|-------1------1--1----|
-----2-----------------2--|----------------------|
--4-----------------------|--4-------------------|
--------------------------|----------------------|


Riff to exit acoustic (with distortion)

----------------------------------|----------------------------------|
----------------------------------|----------------------------------|
----------------------------------|----------------------------------|
----------------------------------|----------------------------------|
----------------------------------|--6-6-6-6-6-6-6-6-6-6-6-6-6-6-6-6-|
--4-4-4-4-4-4-4-4-4-4-4-4-4-4-4-4-|--4-4-4-4-4-4-4-4-4-4-4-4-4-4-4-4-|

		           on 4th, make awesome slides and other shit
----------------------------------|----------------------------------|
----------------------------------|----------------------------------|
----------------------------------|----------------------------------|
--6-6-6-6-6-6-6-6-6-6-6-6-6-6-6-6-|----------------------------------|
--6-6-6-6-6-6-6-6-6-6-6-6-6-6-6-6-|----------------------------------|
--4-4-4-4-4-4-4-4-4-4-4-4-4-4-4-4-|----------------------------------|


Solo

---------------------|-----------------------|-----------------------|
---------------------|-----------------------|-----------------------|
---------------------|-----------------------|--------------7--------|
---------------9--9--|-----------------------|-------------------10--|
--6------------------|--------------------6--|--7--------------------|
---------------------|-----------------------|-----------------------|


------------------------|---------------------|-------------------|
------------------------|---------------------|-------------------|
------------------------|---------------------|-------------------|
--9-----------7----9-10-|--9------------------|-------------------|
------------------------|---------------6--6--|-------------------|
------------------------|---------------------|-------------------|

    	T R I P L E T S
----------------------------------|-------------------|
----------------------------------|-------------------|
----------------------------------|-------------------|
------------------7----9----10----|--9----------------|
--7----9----10--------------------|-------------------|
----------------------------------|-------------------|

   		                              bend & release
---------------------|-----------------------|---------------------|
---------------------|-----------------------|---------------------|
---------------------|-----------------------|---------------------|
---------------8--8--|------------------6-8b-|---------------------|
--6------------------|-----------------------|-----------7---------|
---------------------|-----------------------|---------------------|


--------------------------|---------------------|---------------------|
--------------------------|---------------------|---------------------|
--7-----------------------|---------------------|---------------------|
-------10--9----7----9-10-|--9------------------|---------------------|
--------------------------|---------------6--6--|------------------6--|
--------------------------|---------------------|---------------------|

 	T R I P L E T S
----------------------------------|---------------------|
----------------------------------|--7------------------|
-----------------------------7----|---------9-----------|
------------------9----10---------|---------------------|
--7----9----10--------------------|---------------------|
----------------------------------|---------------------|


Outro

--------------------------------------------------|
--16----------14----------16----------14----------|
-----13-16-13----13-16-13----13-16-13----13-16-13-|
--------------------------------------------------|
--------------------------------------------------|
--------------------------------------------------|


--------------------------------------------------|
--16----------14----------16----------14----------|
-----13-16-13----13-16-13----13-16-13----13-16-13-|
--------------------------------------------------|
--------------------------------------------------|
--------------------------------------------------|


--------------------------------------------------|
--17----------15----------17----------15----------|
-----14-17-14----14-17-14----14-17-14----14-17-14-|
--------------------------------------------------|
--------------------------------------------------|
--------------------------------------------------|


--------------------------------------------------|
--17----------15----------17----------15----------|
-----14-17-14----14-17-14----14-17-14----14-17-14-|
--------------------------------------------------|
--------------------------------------------------|
--------------------------------------------------|
Show more