Intro
|------------------|------------------|------------------|------------------|----|---|
|------------------|------------------|------------------|------------------|----|---|
|------------------|------------------|------------------|------------------|----|---|
|-7777777777777777-|-7777777777777777-|-3333333333333333-|-0000000000000000-|-/7-|-r-|
	(x8)		   (x4)		      (x2)		 (x2)
		   \----------------------------[x2]-----------------------------/

Verse 1	
|------------|------------|------------|-----------|----------|------------|-----------|
|----------7-|--------4\2-|----------7-|-----------|----------|----------7-|-------4\2-|
|-2--2/5-7---|-2--2/5-----|-2--2/5-7---|-----------|--2-2/5/7-|-2--2/5-7---|-2-2/5-----|
|------------|------------|------------|-5-555-3-2-|-2--------|------------|-----------|
\-----------[x4]----------/					   (x3)

Verse 2
|------------|------------|------------|-----------|-----|
|----------7-|--------4\2-|----------7-|-----------|-----|
|-2--2/5-7---|-2--2/5-----|-2--2/5-7---|-----------|-----|
|------------|------------|------------|-5-555-3-2-|-2p0-|
\-----------[x2]----------/

Interlude
|---------------------------------------------|-----------------|
|---------------------------------------------|-----------------|
|---------------------------------------------|-----------------|
|-77777777/88888888/99999999/1010101010101010-|-000000000000000-|
			    \------(x2)------/	     (x12)

|----------------------------------|
|----------------------------------|
|----------------------------------|
|-7--5--7-8--5--8-7--5--7-8--10--8-|
		(x4)

Verse 3
|------------|------------|------------|-----------|----------|
|----------7-|--------4\2-|----------7-|-----------|----------|
|-2--2/5-7---|-2--2/5-----|-2--2/5-7---|-----------|--2-2/5/7-|
|------------|------------|------------|-5-555-3-2-|-2--------|
\-----------[x4]----------/

|------------|------------|------------|-----------|-----|
|----------7-|--------4\2-|----------7-|-----------|-----|
|-2--2/5-7---|-2--2/5-----|-2--2/5-7---|-----------|-----|
|------------|------------|------------|-5-555-3-2-|-2p0-|
\-----------[x2]----------/

Outro
|-------------------------|------------------|------------------|------------------|
|-------------------------|------------------|------------------|------------------|
|-------------------------|------------------|------------------|------------------|
|-7777/8888/9999/10101010-|-7777777777777777-|-3333333333333333-|-0000000000000000-|
				  (x4)		     (x4)		(x4)

|------------------|------------------|------------------|----|
|------------------|------------------|------------------|----|
|------------------|------------------|------------------|----|
|-7777777777777777-|-3333333333333333-|-0000000000000000-|-/7-|
       (x8)		   (x4)		      (x4)

		*****************
		**** THE END ****
                *****************
I hope you'll like it ... this is my first bas tab so pleas go easy on me =) thnx
Show more