Song: You Love Me Anyway
Artist: Sidewalk Prophets
Bassist: Cal Joslin

Tuning: Standard BEADG

Intro-Rest

Verse 1 0:30
G|------------------------------------|
D|------------------------------------|
A|---2/7--7--------7---------7--------|
E|------------5---------5---------7---|
B|------------------------------------|

G|------------------------------|
D|------------------------------|
A|-------7------7-------7-------|
E|---5------5-------5-------7---|
B|------------------------------|

Chorus 0:51
G|-------------------|
D|-------------------|
A|-----------7-------|
E|---9---5-------7---|
B|-------------------|

G|--------------------------4---|
D|---------------------4--------|
A|-----------7------------------|
E|---9---5-------7--------------|
B|------------------------------|

Verse 2 1:16
G|--------------------------------------|
D|----------------------------------9---|
A|-------7------7-------7-------7/9-----|
E|---5------5-------5-------7-----------|  
B|--------------------------------------|

G|------------------------------|
D|------------------------------|
A|-------7------7-------7-------|
E|---5------5-------5-------7---|
B|------------------------------|

Chorus 1:37
G|-------------------|
D|-------------------|
A|-----------7-------|
E|---9---5-------7---|  x2
B|-------------------|

Bridge 1:57

G|-------|
D|-------|
A|-------|
E|---7~--|
B|-------|

Rest until 2:18
G|-------------------------------|
D|-------------------------------|
A|---14------12------16---14---12|
E|-------------------------------|
B|-------------------------------| x2

G|-----------------------------|
D|-----------------------------|
A|-----------------------------|
E|---7------5------9---7---5---| x3
B|-----------------------------|

Chorus 3:23
G|-------------------|
D|-------------------|
A|-----------7-------|
E|---9---5-------7---|  x4
B|-------------------|

Outro 4:04
G|------------------|
D|------------------|
A|--------------7~--|
E|---9---5----------|
B|------------------|



CAl uses a 5-string Bass for this song (atleast he does in the video anyway),
but never uses the B-string, so worship on you 4-stringers! Overall, this tab
is nearly perfect, there are a few small flourishes that i didn't tab, most
people like to ad lib that anyway. I paused the video everytime it showed
the bass to verify my tab. Please Rate!!!!
Show more