• Song:

    Nadchodzi Zwykle Swinstwo

  • Artist:

    Siekiera

Zwrotka ( Verse)

Nadchodzi...

-----------------|
-----------------|
-----------------|
-4-4-4-4-2-2-2-2-|
-4-4-4-4-2-2-2-2-|
-2-2-2-2-0-0-0-0-|

Przejście  (bridge)
----------------------------|
----------------------------|
----------------------------|
------------------6-6-6-6---|
-7-7-7-7-6-6-6-6--4-4-4-4---|
-5-5-5-5-4-4-4-4------------|

Refren ( chorus)



Przejście z refrenu w zwrotke  (bridge)
--------------------------------------------------|
--------------------------------------------------|
--------------------------------------------------|
-7-7-7-7-5-5-5-5-3-3-3-3-2-2-2-2------------------|
-7-7-7-7-5-5-5-5-3-3-3-3-2-2-2-2------------------|
-5-5-5-5-3-3-3-3-1-1-1-1-0-0-0-0-4-4-4-4-5-5-5-5--|
Show more