• Song:

    Cartas Al Otro Lado Del Mundo

  • Artist:

    Siempre Me Dejas

Esta es una cancion de Siempre Me Dejas que queria aprender hace mucho, pero debido a
que aun no sabia afinar mi guitarra no la aprendi hahaha y las tablaturas en standar que
habian eran un asco, asi que ahora que aprendi a afinar, esta es la Afinacion de la 
ultima a la primera: C G C G C C

C|--------------------------------------|
C|--------------------------------------|
G|-12-------12--------11-------10-------|
C|-----11-------11--------11-------11---|
G|--9--------9------9/10-------10-------|
C|--------------------------------------|

C|--------------------------------------|
C|--------------------------------------|
G|----7-------7---------5-------5-------|
C|-------7-------7---------4-------4----|
G|-10\5-------5-------5\2-------2-------|
C|--------------------------------------|

      Hola Hoy te escribo
C|--------------------------------------|
C|--------------------------------------|
G|--12-x-12-12-12----11-x-11-11-11------|
C|--11-x-11-11-11----11-x-11-11-11------|
G|---9-x-9--9--9-----10-x-10-10-10------|
C|--------------------------------------|

     Te sigues escondiendo vida
C|--------------------------------------|
C|--------------------------------------|
G|--7-x-7-7-7----5-x-5-5-5--------------|
C|--7-x-7-7-7----4-x-4-4-4--------------|
G|--5-x-5-5-5----2-x-2-2-2--------------|
C|--------------------------------------|

     Aqui estoy, aqui me quedo
C|--------------------------------------|
C|--------------------------------------|
G|--12-x-12-12-12----11-x-11-11-11------|
C|--11-x-11-11-11----11-x-11-11-11------|
G|---9-x-9--9--9-----10-x-10-10-10------|
C|--------------------------------------|

   No me voy, aqui me encuentro
C|--------------------------------------|
C|--------------------------------------|
G|--7-x-7-7-7----5-x-5-5-5--------------|
C|--7-x-7-7-7----4-x-4-4-4--------------|
G|--5-x-5-5-5----2-x-2-2-2--------------|
C|--------------------------------------|

   Y te veo de Lejos
C|-4--4-4-4-4-4--4-4-4-4--5--5-5-5-5-5--5-5-5-5-|
C|-4--4-4-4-4-4--4-4-4-4--5--5-5-5-5-5--5-5-5-5-|
G|-4--4-4-4-4-4--4-4-4-4--5--5-5-5-5-5--5-5-5-5-|
C|-4--4-4-4-4-4--4-4-4-4--5--5-5-5-5-5--5-5-5-5-|      En estas 2 partes se
G|-4--4-4-4-4-4--4-4-4-4--5--5-5-5-5-5--5-5-5-5-|        puede tocar con
C|-4--4-4-4-4-4--4-4-4-4--5--5-5-5-5-5--5-5-5-5-|      una segunda guitarra
                                                       La segunda guitarra
  Y me aseguro que nada te...                           toca lo mismo
C|-0--0-0-0-0-0--0-0-0-0--9--9-9-9-9--9-9-9-9---|      solo que las cuerdas
C|-0--0-0-0-0-0--0-0-0-0--9--9-9-9-9--9-9-9-9---|      1, 2 y 3 al aire.
G|-0--0-0-0-0-0--0-0-0-0--9--9-9-9-9--9-9-9-9---|
C|-0--0-0-0-0-0--0-0-0-0--9--9-9-9-9--9-9-9-9---|
G|-0--0-0-0-0-0--0-0-0-0--9--9-9-9-9--9-9-9-9---|
C|-0--0-0-0-0-0--0-0-0-0--9--9-9-9-9--9-9-9-9---|

     Afecte hoy, te cuido del viento
C|-4--4-4-4-4-4--4-4-4-4--5--5-5-5-5-5--5-5-5-5-|
C|-4--4-4-4-4-4--4-4-4-4--5--5-5-5-5-5--5-5-5-5-|
G|-4--4-4-4-4-4--4-4-4-4--5--5-5-5-5-5--5-5-5-5-|
C|-4--4-4-4-4-4--4-4-4-4--5--5-5-5-5-5--5-5-5-5-|
G|-4--4-4-4-4-4--4-4-4-4--5--5-5-5-5-5--5-5-5-5-|
C|-4--4-4-4-4-4--4-4-4-4--5--5-5-5-5-5--5-5-5-5-|

     Aqui estoy, te cuido de lejos
C|-0--0-0-0-0-0--0-0-0-0--9--9-9-9-9--9-9-9-9---|
C|-0--0-0-0-0-0--0-0-0-0--9--9-9-9-9--9-9-9-9---|
G|-0--0-0-0-0-0--0-0-0-0--9--9-9-9-9--9-9-9-9---|
C|-0--0-0-0-0-0--0-0-0-0--9--9-9-9-9--9-9-9-9---|
G|-0--0-0-0-0-0--0-0-0-0--9--9-9-9-9--9-9-9-9---|
C|-0--0-0-0-0-0--0-0-0-0--9--9-9-9-9--9-9-9-9---|

    Y a ver si un dia
C|-5--5-5-5-5-5--5-5-5-5-5--5-5-5-5-5--5-5-5-5--|
C|-5--5-5-5-5-5--5-5-5-5-5--5-5-5-5-5--5-5-5-5--|
G|-5--5-5-5-5-5--5-5-5-5-5--5-5-5-5-5--5-5-5-5--|
C|-5--5-5-5-5-5--5-5-5-5-5--5-5-5-5-5--5-5-5-5--|
G|-5--5-5-5-5-5--5-5-5-5-5--5-5-5-5-5--5-5-5-5--|
C|-5--5-5-5-5-5--5-5-5-5-5--5-5-5-5-5--5-5-5-5--|

    Tu te fijas en mi
C|-0--0-0-0-0-0--0-0-0-0-0--0-0-0-0-0--0-0-0-0--|
C|-0--0-0-0-0-0--0-0-0-0-0--0-0-0-0-0--0-0-0-0--|
G|-0--0-0-0-0-0--0-0-0-0-0--0-0-0-0-0--0-0-0-0--|
C|-0--0-0-0-0-0--0-0-0-0-0--0-0-0-0-0--0-0-0-0--|
G|-0--0-0-0-0-0--0-0-0-0-0--0-0-0-0-0--0-0-0-0--|
C|-0--0-0-0-0-0--0-0-0-0-0--0-0-0-0-0--0-0-0-0--|

  Y ya no sigas
C|-5--5-5-5-5-5--5-5-5-5-5--5-5-5-5-5--5-5-5-5--|
C|-5--5-5-5-5-5--5-5-5-5-5--5-5-5-5-5--5-5-5-5--|
G|-5--5-5-5-5-5--5-5-5-5-5--5-5-5-5-5--5-5-5-5--|
C|-5--5-5-5-5-5--5-5-5-5-5--5-5-5-5-5--5-5-5-5--|
G|-5--5-5-5-5-5--5-5-5-5-5--5-5-5-5-5--5-5-5-5--|
C|-5--5-5-5-5-5--5-5-5-5-5--5-5-5-5-5--5-5-5-5--|

  Perdida y sin mi
C|-0--0-0-0-0-0--0-0-0-0-0--0-0-0-0-0--0-0-0-0--|
C|-0--0-0-0-0-0--0-0-0-0-0--0-0-0-0-0--0-0-0-0--|
G|-0--0-0-0-0-0--0-0-0-0-0--0-0-0-0-0--0-0-0-0--|
C|-0--0-0-0-0-0--0-0-0-0-0--0-0-0-0-0--0-0-0-0--|
G|-0--0-0-0-0-0--0-0-0-0-0--0-0-0-0-0--0-0-0-0--|
C|-0--0-0-0-0-0--0-0-0-0-0--0-0-0-0-0--0-0-0-0--|

  Piensa un dia
C|-5--5-5-5-5-5--5-5-5-5-5--5-5-5-5-5--5-5-5-5--|
C|-5--5-5-5-5-5--5-5-5-5-5--5-5-5-5-5--5-5-5-5--|
G|-5--5-5-5-5-5--5-5-5-5-5--5-5-5-5-5--5-5-5-5--|
C|-5--5-5-5-5-5--5-5-5-5-5--5-5-5-5-5--5-5-5-5--|
G|-5--5-5-5-5-5--5-5-5-5-5--5-5-5-5-5--5-5-5-5--|
C|-5--5-5-5-5-5--5-5-5-5-5--5-5-5-5-5--5-5-5-5--|

       Piensa solo en.....
C|-0--0-0-0-0-0--0-0-0-0-0--0-0-0-0-0--0-0-0-0--|
C|-0--0-0-0-0-0--0-0-0-0-0--0-0-0-0-0--0-0-0-0--|
G|-0--0-0-0-0-0--0-0-0-0-0--0-0-0-0-0--0-0-0-0--|
C|-0--0-0-0-0-0--0-0-0-0-0--0-0-0-0-0--0-0-0-0--|
G|-0--0-0-0-0-0--0-0-0-0-0--0-0-0-0-0--0-0-0-0--|
C|-0--0-0-0-0-0--0-0-0-0-0--0-0-0-0-0--0-0-0-0--|

    Mi, solo en
C|-5--5-5-5-5-5--5-5-5-5-5--5-5-5-5-5--5-5-5-5--|
C|-5--5-5-5-5-5--5-5-5-5-5--5-5-5-5-5--5-5-5-5--|
G|-5--5-5-5-5-5--5-5-5-5-5--5-5-5-5-5--5-5-5-5--|
C|-5--5-5-5-5-5--5-5-5-5-5--5-5-5-5-5--5-5-5-5--|
G|-5--5-5-5-5-5--5-5-5-5-5--5-5-5-5-5--5-5-5-5--|
C|-5--5-5-5-5-5--5-5-5-5-5--5-5-5-5-5--5-5-5-5--|

   Mi... en Mi
C|-0--0-0-0-0-0--0-0-0-0-0--9-9-9-9-9--9-9-9-9--|
C|-0--0-0-0-0-0--0-0-0-0-0--9-9-9-9-9--9-9-9-9--|
G|-0--0-0-0-0-0--0-0-0-0-0--9-9-9-9-9--9-9-9-9--|
C|-0--0-0-0-0-0--0-0-0-0-0--9-9-9-9-9--9-9-9-9--|
G|-0--0-0-0-0-0--0-0-0-0-0--9-9-9-9-9--9-9-9-9--|
C|-0--0-0-0-0-0--0-0-0-0-0--9-9-9-9-9--9-9-9-9--|

Bueno, despues de esto se repite toda la cancion, basicamente esa es toda la cancion,
puedo decir que esta tablatura no es 100% correcta, la saque viendo a un chavo en youtube,
gracias a ShEcKo00 por su video, que el intro viene de ahi.

HABER OMAR AHORA SII QUE OPINAAS!

http://www.purevolume.com/siempremedejas

http://www.myspace.com/siempremedejas1
Show more