-------------------------------------------------------------------------------
			     Hljomalind - Sigur Ros
-------------------------------------------------------------------------------

Tabbed By : Elska93
e-mail: calumsomhairle@btinternet.com

Tuning: Standard

INTRO

G|--------------------------------------------------------------------------|
D|-7----------9-----------5--------------12---------------------------------|
A|--------------------------------------------------------------------------|
E|--------------------------------------------------------------------------|

VERSE/CHORUS (repeat throughout these sections)

G|--------------------------------------------------------------------------|
D|-7--777--77--77--999\5--555--55--55--555--12--121212--1212--1212--121212--|
A|--------------------------------------------------------------------------|
E|--------------------------------------------------------------------------|

BIT AFTER CHORUS 2/GUITAR SOLO (repeat throughout this section)

G|--------------------------------------------------------------------------|
D|-5-555555-55-5555-4444-55555-55-4h54h5------------------------------------|
A|--------------------------------------------------------------------------|
E|--------------------------------------------------------------------------|

AFTER SOLO

G|--------------------------------------------------------------------------|
D|-7----------9-----------5--------------12---------------------------------|
A|--------------------------------------------------------------------------|
E|--------------------------------------------------------------------------|

CHORUS

ENDING

G|--------------------------------------------------------------------------|
D|-7------------------------------------------------------------------------|
A|--------------------------------------------------------------------------|
E|--------------------------------------------------------------------------|

| \  slide down
| h  hammer-on

here's my attempt at tabbing the bass to hljomalind; I hope that you find it useful :)

===============================================================================
Show more