sponsored links
----------------------------------------------------------------------------
                Rebirth of the temple - silent civilian
----------------------------------------------------------------------------
Tabbed by: sean crow
Email: die_for_nothing_323@hotmail.com     RATE + COMMENT THIS
AIM: black0range555
Tuning: CGCFAd
                                    I know this has been tabbed but i want 
<   = slide down.                   to tab out all the songs onto UG!!
^   = bend.                         I play this a lil different to others!!
*   = harmonic.
.   = palm-mute.
h   = hammer-on.
(#) = play CHORD just before the () however many times it say.
(#) = if it is at the top of the line (inside) then play the PART b4 that 
      however many times!
   
e|---------------------------------------------------------------------|
B|---------------------------------------------------------------------|
G|---------------------------------------------------------------------|
D|-0----------------8----------------5----------------7--------88-1010-| x2
A|-0--8-7-8-7-8-7h8-8--8-7-8-7-8-7h8-5--8-7-8-7-8-7h8-7--8-7h8-88-1010-|
E|-0-0-0-0-0-0-0----8-8-8-8-8-8-8----5-5-5-5-5-5-5----7-7-7----88-1010-|
     . . . . . .      . . . . . .      . . . . . .      . .
e|---------------------------------------------------------------------|
B|---------------------------------------------------------------------|
G|---------------------------------------------------------------------|
D|-0----------------8----------------5----------------7--------88-1010-| 
A|-0--8-7-8-7-8-7h8-8--8-7-8-7-8-7h8-5--8-7-8-7-8-7h8-7--8-7h8-88-1010-|
E|-0-0-0-0-0-0-0----8-8-8-8-8-8-8----5-5-5-5-5-5-5----7-7-7----88-1010-|
     . . . . . .      . . . . . .      . . . . . .      . .
e|------------|
B|------------|
G|------------|
D|-5-000000-0-|
A|-5-000000-0-|
E|-5-000000-0-|
     ...... .
e|----------------------|---------------------|
B|-----------------(x3)-|---------------------|
G|----------------------|---------------------|
D|-3------2-6-5---------|-3------2-6-5-000000-|
A|-3(x16)-2-6-5(x8)-----|-3(x16)-2-6-5-000000-|
E|-3------2-6-5---------|-3------2-6-5-000000-|
                                       ......
e|------------------------------|
B|------------------------------|
G|---------------------------9*-|
D|-0----------------5-----------|
A|-0--8-7-8-7-8-7h8-5--8-7h8----|
E|-0-0-0-0-0-0-0----5-5-5-------|
     . . . . . .      . .
e|---------------------------------|------------------------|
B|----------------------------(x3)-|------------------------|
G|------------------10-9-7-9-------|------------------------|
D|-5-----3-----0-----x-x-x-x-------|-5-----3-----0-000000-0-|
A|-5(x8)-3(x8)-0(x8)-8-7-5-7-------|-5(x8)-3(x8)-0-000000-0-|
E|-5-----3-----0-------------------|-5-----3-----0-000000-0-|
                                                   ......
e|----------------------|------------------------|---------------------|
B|----------------------|------------------------|---------------------|
G|-----------------(x2)-|------------------------|---------------------|
D|-3------2-6-5---------|-3---3-3----3-2-6-5-----|-3------2-6-5-000000-|
A|-3(x16)-2-6-5(x8)-----|-3-3-3-3-33-3-2-6-5(x8)-|-3(x16)-2-6-5-000000-|
E|-3------2-6-5---------|-3-3-3-3-33-3-2-6-5-----|-3------2-6-5-000000-|
                            .     ..                            ......
e|------------------------------|
B|------------------------------|
G|---------------------------9*-|
D|-0----------------5-----------|
A|-0--8-7-8-7-8-7h8-5--8-7h8----|
E|-0-0-0-0-0-0-0----5-5-5-------|
     . . . . . .      . .
e|---------------------------------|------------------------|
B|----------------------------(x3)-|------------------------|
G|------------------10-9-7-9-------|------------------------|
D|-5-----3-----0-----x-x-x-x-------|-5-----3-----0-000000-0-|
A|-5(x8)-3(x8)-0(x8)-8-7-5-7-------|-5(x8)-3(x8)-0-000000-0-|
E|-5-----3-----0-------------------|-5-----3-----0-000000-0-|
                                                   ......
e|-------------------|-------------------|
B|-------------------|---6*--------------|
G|---------------(x3)|-5----7-8-10<8-10*-|
D|-0-----------8<----|-x----x-x--x

                
Show more
sponsored links
sponsored links