• Song:

    Professional

  • Artist:

    Silent Drive

  • Album:

    Love Is Worth It

sponsored links
Band: Silent Drive
Song: The Professional
Album: Love Is Worth It
Tabbed by: choke383
Normal Tuning: GDAE


0:03
G|----------------------------------------------------------------------------|
D|----------------------------------------------------------------------------|
A|----------------------------------------------------------------------------|
E|0-0-----0-0--0-----0-0--0--0----0-0--0--0--0---0-0-----0-0--0----0-0--0--0--|

G|-----------------------------------------------|
D|-----------------------------------------------|
A|-------------------------3-3~----1-1~----------|
E|0000000000000000-0-0~--------------------4-4~--|


0:39
G|---------------------------------------------------------------------------------|
D|----------------------------------------------------------------11111111---------|
A|--------------------------------22222222222222224444444422222222--------22222222-|
E|00000000000000002222222222222222-------------------------------------------------|

G|--------------------------------------------------|
D|111111111111111111111111--------1111111111111111--|
A|------------------------22222222------------------|
E|--------------------------------------------------|


1:04
G|------------------------------|
D|------------------------------|
A|2-22-22/5555555----22000-000--|
E|---------------0-0------2-----|x2

G|-----------------------------------------------------------------------------|
D|-----------------------------------------------------------------------------|
A|2-22-22/5555555----------------2-2~---2-1-1~--------------------2-2~----0-0~-|
E|---------------0-0~----2-2~---------------------0-0~----2-2~-----------------|


1:43
G|------------------------------------------------------------------------00000000-|
D|----------------------------------------------------------------11111111---------|
A|--------------------------------22222222222222224444444422222222-----------------|
E|00000000000000002222222222222222-------------------------------------------------|

G|--------------------------------------------------|
D|111111111111111111111111--------1111111111111111--|
A|------------------------22222222------------------|
E|--------------------------------------------------|


2:08
G|------------------------------|
D|------------------------------|
A|2-22-22/5555555----22000-000--|
E|---------------0-0------2-----|x3

G|-----------------|
D|-----------------|
A|2-22-22/5555555--|
E|-----------------|

G|------------------|
D|------------------|
A|----22000-000000--|
E|0000-----2--------|x4

G|------------------|
D|------------------|
A|2-22-22/5555555---|
E|---------------0--|





G|------------------|
D|------------------|
A|----22000-000000--|
E|0000-----2--------|x16

G|----|
D|----|
A|----|
E|-0--|



Any comments, questions or jokes send to style444@hotmail.com
Show more
sponsored links
sponsored links