• Song:

    Shenandoah

  • Artist:

    Sissel

Song: Shenandoah
Artist: Sissel Kyrkjebų - http://www.sissel.net/
Tuning: Standard, Capo on 1st fret optional

Chords used:
    Eb   Gm7   Cm    Ab
e|--3-----6-----3-----1----|
B|--4-----6-----4-----3----|
G|--3-----7-----5-----3----|
D|--1-----5-----5-----3----|
A|--------------3-----1----|
E|-------------------------|


  Eb                      Gm7
O Shenandoah, I love your daughter

 Cm               Bb
Away, you rolling river

  Cm                      Eb
O Shenandoah, I love your daughter

 Cm               Eb            Bb         Eb
Away I'm bound to go 'cross the wide Missouri

O Shenandoah, I long to hear you
Away, you rolling river
O Shenandoah, I long to hear you
Away I'm bound to go 'cross the wide Missouri

O Shenandoah, I long to see you
Away, you rolling river
O Shenandoah, I long to see you
Away I'm bound to go 'cross the wide Missouri


This song can be made slightly easier by placing a capo on the 1st fret. The 
chords, then, relative to the capo, are as follows:
    Eb   Gm7   Cm    Ab
e|--2-----5-----2-----0----|
B|--3-----5-----3-----2----|
G|--2-----6-----4-----2----|
D|--0-----4-----4-----2----|
A|--------------2-----0----|
E|-------------------------|
Show more