• Song:

    Wildflower

  • Artist:

    Skylark

  • Album:

    Wildflower: A Golden Cl...

Wildflower
Skylark
Tabbed by: avill616@yahoo.com

for you, Sarah Asher....

Intro 
G|--------------------------------------------|
D|----------------------------------------7---|
A|-5--5-3--3-2--2-1--1-0--0-0-----0--0-0----5-|
E|-----------------------------5-5------------|

Verse 
G|-----------------------------------------------|
D|-----------------------------------------------|
A|-5-3--3-2--2-2----2-3--3-3--3-5-0------0---3-5-|
E|--------------3--3---------------1--1-1---5----|

G|--------------------|----------------|-------------5---|
D|--------------------|----------------|----0--0-0-2-----|
A|-5-3--3-2--2-1--1-3-|-3-3------0-2-3-|-3-3-----------3-|
E|--------------------|------1-3-------|-----------------|

G|-----------------------------------|
D|---------------7-5-----------------|
A|-3--3-3--3--3------------5--5-5--5-|
E|-------------6-----3-3--3----------|

Chorus1 
G|-----------------------|--------------------------|
D|-------------------0---|--------------------------|
A|-1--3-3--3-------0---3-|-1--1-1--1--1-0--0-5--5-3-|
E|----------1--1-3-------|--------------------------|

G|----------------------------|---------------------|-------------------|
D|--------------------5--5-5--|--------0-0--2-2-----|-------------------|
A|-1--1-0--0------------------|-3--3-3----------3-3-|-----------------1-|
E|----------3--3-3-5-5------3-|---------------------|-1-1--1-1--1--1-3--|

Bridge 
G|-----------------|-----------------|
D|-----------------|-----------------|
A|-1-1-----------1-|-1-1-----------1-|
E|----1--1-1--1-3--|----1--1-1--1-3--|

G|---------------------|----------------------------|
D|--------------3-3----|----------------------------|
A|-1-1-----------------|-------3-3--3------0--0-3-5-|
E|----1--1-1--1----1-1-|-3-3--3------1-1--1----5----|

Instrumental 
G|---------------------------------------------------------|
D|---------------------------------------------------------|
A|-5-5--5-5--5-5--5-5--5-3--3-2--2-1--1-0--0-0-----0-0---5-|
E|---------------------------------------------5-5---------|

Verse 
G|-----------------------------------------------|
D|----------------5-5----------------------------|
A|-5-3--3-2--2-2------3--3-3-5-5-3--3----0---3-5-|
E|--------------3--------------------1--1---5----|

G|--------------------|---------------------|---------------|
D|--------------------|-----0-0--2-2--3-3---|---------------|
A|-5-3--3-2--2-1--1-3-|-3-3---------------3-|-3-3-----0-2-3-|
E|--------------------|---------------------|-----1-3-------|

G|--------5-5-5---------------------|
D|----------------------------------|
A|-3--3-3-----------------5--5-5--5-|
E-------------6--5--3--3------------|

Chorus2 
G|-----------------------|--------------------------|
D|-------------------0---|--------------------------|
A|-1--3-3--3-------0---3-|-1--1-1--1--1-0--0-5--5-3-|
E|----------1--1-3-------|--------------------------|

G|----------------------------------------------------------|
D|----------------------------------------------------------|
A|-1--1-1--0--0-0------------3--3-3-5-5--3--3---------------|
E|---------------3--3-3--3--3----------------1--1-1--1--1-3-|

Chorus3
G|------------------------------|--------------------------|
D|-----------------3-2-3--3-2-3-|--------------------------|
A|-1--3-3--3--------------------|-1--1-1--1--1-0--0-5--5-3-|
E|----------1--1-1--------------|--------------------------|

G|----------------------------------------------------------|
D|----------------------------------------------------------|
A|-1--1-1--0--0-0------------3--3-3-5-5--3--3---------------|
E|---------------3--3-3--3--3----------------1--1-1--1--1-3-|

Ending 
G|-----------------------------|
D|----------------3-2-0--3-2-0-|
A|-1--1-3--3-------------------|
E|----------1--1-1-------------|
Show more