TABBED BY: SLAYERBASSBACON
STANDARD 5 STRING TUNING (BEADG)


INTRO

G[--------------------------------------------------]
D[--------------------------------------------------]
A[--------------------------------------------------]
E[-----------3--------------------------------------]
B[-00-3--00----00--3-0------------------------------]

VERSE

G[-------------------------------------------------]
D[-------------------------------------------------]
A[-------------------------------------------------]
E[-------------------------------------------------]
B[-003-003-004--5650-------------------------------]

CHORUS

G[------------------------------------------------]
D[------------------------------------------------]
A[------------------------------------------------]
E[------33333333-888888888------------------------]
B[-000----------------------1111-3333-1111-------1]

BRIDGE

G[------------------------------------------------]
D[------------------------------------------------]
A[----------------------------9---------987-------]
E[-------------34---------/7--------/9------------]
B[----0-343-0------0---------------------------0~-]

G[------------------------------------------------]
D[------------------------------------------------]
A[------------------------------------------------]
E[------------------------------------------------]
B[-000-333-2--12--0--3--2----0--5--6--1/161-----]

OUTRO

G[-----------------------------------------------]
D[-----------------------------------------------]
A[-----------------------------------------------]
E[-------------34--------------------------------]
B[----0-344-0------------------------------------]
Show more