intro/verse
G--------------------------------
D--------------------------------
A--------------------------------
D-00000-1-00000-1-00000-1-0000-2-

funky fill 1 (just after intro)(easier than what it sounds)
G----------------------------------5-6-5-----------------------------------
D-9-8-7-6-5-5-6-7-8-9--9-8-7-6-5-6--------9--9-8-7-6-5-5-6-7-8-9-12-15-17~-
A--------------------------------------------------------------------------
D--------------------------------------------------------------------------

back to intro riff for verse

then funky fill again

then this
G----------------------------
D----------------------------
A----------------------------
D-00000-333333-222222-11111--

then funkyyyyyyy (slap and Pop)  
G------------------------|-----------8----  repeat for a while then
D----9-----9----10-----10|-x-10-9h10---10-
A------------------------|----------------
D-7----5/7---8-----6/8---|---------------- all notes on d string slapped

pre bass solo
G-------------
D-------------
A-------------
D-0-2-0-1-0-1- slapped

Bass solo      all slapped and popped

G-----------3--------------------------5-3-------------
D-------3h5---5p3h5---------------3h5------5p3h5-------
A-----3-------------3h5--------3-----------------3h5---
D-3h5--------------------3h5---------------------------
(cont.)
G-----------3--------------------------------
D-------3h5---5p3h5----------3-x--3h5p3------
A-----3-------------3h5----------------------
D-3h5-------------------3h5-------------5---

back to verse riff

then repeat various riffs
Show more