Band: SlipKnoT
Song: Do Nothing/Bitchslap
tuning: B (BEAD)

intro/verse 
D|--------------------------------|
A|--------------------------------|
E|--------------------------------|
B|-00000-1-00000-1-00000-1-0000-2-| 

fill 1
D|----------------------------------5-6-5-----------------------------------| 
A|-9-8-7-6-5-5-6-7-8-9--9-8-7-6-5-6--------9--9-8-7-6-5-5-6-7-8-9-12-15-17~-| 
E|--------------------------------------------------------------------------| 
B|--------------------------------------------------------------------------| 


fill 2
D|----------------------------| 
A|----------------------------| 
E|----------------------------| 
B|-00000-333333-222222-11111--|


D|------------------------|-----------8----| 
A|----9-----9----10-----10|-x-10-9h10---10-|
E|------------------------|----------------|
B|-7----5/7---8-----6/8---|----------------|
 (all notes on B string slapped)

 pre bass solo 
D|-------------| 
A|-------------| 
E|-------------|
B|-0-2-0-1-0-1-| 
 (slapped) 

Bass solo

D|-----------3--------------------------5-3-------------| 
A|-------3h5---5p3h5---------------3h5------5p3h5-------| 
E|-----3-------------3h5--------3-----------------3h5---|
B|-3h5--------------------3h5---------------------------| 
 
D|-----------3--------------------------------| 
A|-------3h5---5p3h5----------3-x--3h5p3------| 
E|-----3-------------3h5----------------------| 
B|-3h5-------------------3h5-------------5---|
 (slap the B string and just pluck the rest)
Show more