=============================|
Artist: Slipknot
Album : Slipknot S/T 
Song  : Eeyore (Hidden Track)
=============================|
Tuning: (High to Low) D-A-E-B
=============================|
~ = Let Note Ring
=============================|
Email comments, hate mail, or questions to: [ mahurashi@hotmail.com ]
=============================|


[Play this part shortly after guitar starts it]
D|--------------------------------------------|
A|--------------------------------------------|
E|--------------------------------------------|
B|1111-0--------------------------------------|
 

D|--------------------------------------------|
A|--------------------------------------------|
E|--------------------------------------------|
B|777777-33-22--------------------------------|


D|--------------------------------------------|
A|--------------------------------------------|
E|--------------------------------------------|
B|3-000-3-3-3-3-000-3-0-3-5-------------------|


D|--------------------------------------------|
A|--------------------------------------------|
E|--------------------------------------------|
B|3-1~-00-1-00-1-1~---------------------------|


D|--------------------------------------------|
A|--------------------------------------------|
E|--------------------------------------------|
B|777777-33-22--------------------------------|


D|--------------------------------------------|
A|--------------------------------------------|
E|--------------------------------------------|
B|1111-0~-------------------------------------|
Show more