Song: Gently
Band: Slipknot
Album: Mate.Feed.Kill.Repeat
Tuning: EADG (I know this isn't the correct tuning, but I like to play it this way)
Tabbed By: Sten, email-stensomeone@hotmail.com, website-www.stencorp.tk

Guitar solo until drums start

G | ----------------------------|
D | --------------------3-------|
A | ----3----3-5-6---------3----|   x4
E | ----------------------------|

G|-------------------------------|
D|-------------------------------|
A|----3----6---------------------|   x4
E|-------------------6----4—6----|

G|---------------------------------------|
D|---------------------------------------|
A|----3-3-3-3-6-6-6-6-5-5-5-5-5-5-5-5----|   x3
E|---------------------------------------|

G|----------------------------------------|
D|----------------------------------------|
A|----3-3-3-3-6-6-6-6-6-5-5-5-------------|   x1
E|-----------------------------6-6-6-6----|

G|---------------------------------------|
D|---------------------------------------|
A|----3-3-3-3-6-6-6-6-5-5-5-5-5-5-5-5----|   x3
E|---------------------------------------|

G|----------------------------------------------|
D|----------------------------------------------|
A|----4-4-4-4-7-7-8-8--------------6-8-5-6-5----|   x1
E|---------------------------6-5-3--------------|

G|---------------------------------------|
D|---------------------------------------|
A|----3-3-3-3-6-6-6-6-5-5-5-5-5-5-5-5----|   x1
E|---------------------------------------|

G|----------------------------------------------|
D|----------------------------------------------|
A|----4-4-4-4-7-7-8-8--------------6-8-5-6-5----|   x1
E|---------------------------6-5-3--------------|

G|---------------------------------------------|
D|---------------------------------------------|
A|----3-3-3-3-6-6-6-6-6-5-5-5------------------|   x4
E|----------------------------------6-6-6-6----|

Vocals start




G|---------------------------------------|
D|---------------------------------------|
A|----3-3-3-3-6-6-6-6-5-5-5-5-5-5-5-5----|   x4
E|---------------------------------------|

G|----------------------------------------------|
D|----------------------------------------------|
A|----4-4-4-4-7-7-8-8--------------6-8-5-6-5----|   x1
E|---------------------------6-5-3--------------|

G|---------------------------------------|
D|---------------------------------------|
A|----3-3-3-3-6-6-6-6-5-5-5-5-5-5-5-5----|   x1
E|---------------------------------------|

G|----------------------------------------------|

D|----------------------------------------------|
A|----4-4-4-4-7-7-8-8--------------6-8-5-6-5----|   x1
E|---------------------------6-5-3--------------|

Pause

Guitar does this twice, solo
G|------------------------------------|
D|------------1-----------------------|
A|----2-3-2-------2-3-2-4----2-3-2----|   x10
E|------------------------------------|

G|----------------|        |-------------|
D|-----------1----|        |-------------|
A|----2-3-2-------|   x8   |----2-3-2----|   x1
E|----------------|        |-------------|

G|------------------------------------|
D|------------1-----------------------|
A|----2-3-2-------2-3-2-4----2-3-2----|   x12
E|------------------------------------|
Show more