ARTIST: SLIPKNOT
SONG: GENTLY
ALBUM: M.F.K.R.

TABBED BY: MASTER DISASTER
CONTACT AT: MASTERDISTASTER_BLIND@YAHOO.COM

SYMBOLS: / = SLIDE UP  * = HARMONICS  b = BEND  p = PULL OFF  PM = PALM MUTE  Qb = QUARTER BEND

         Fb = FULL BEND  X = OPEN MUTED STRING  h = HAMMER ON  ~ = VIBRATO  \ = SLIDE DOWN

         () = BEND BACK  Hb = HALF BEND


TUNING: DROP C - C G C F A D

D|---------1p0-------------0--------------------------------------4h5-------8p6-------6------------|
A|-----3-------3-------3-----3---3--------------------------5h6-------6---------6---6---6----------|
F|---2---2-------2---3---3-----3-------3---3---3---2~~~-----------------7---------7-----------3----|
C|-0---------------------------------2--------------------0-----0---------0-----------------2------|
G|-----------------1---------------0-----0---0---0------0---------------------------------0-----0--|
C|-------------------------------------------------------------------------------------------------|

D|-------------------------------------------------------------------------------------------------|
A|-------------------------------------------------------------------------------------------------|
F|-3---3---3---2~~~--------------------------------------------------------------------------------|
C|-------------------------------------------------------------------------------------------------|
G|---0---0---0------0------------------------------------------------------------------------------|
C|-------------------------------------------------------------------------------------------------|


TURN ON DELAY

D|---------1p0-------------0--------------------------------------4h5-------6h8p6-------6----------|
A|-----3-------3-------3-----3---3--------------------------5h6-------6-----------6---6---6--------|
F|---2---2-------2---3---3-----3-------3---3---3---2~~~-----------------7-----------7-----------3--|
C|-0---------------------------------2--------------------0-----0---------0-------------------2----|
G|-----------------1---------------0-----0---0---0------0-----------------------------------0------|
C|-------------------------------------------------------------------------------------------------|

D|-------------------------------------------------------------------------------------------------|
A|-------------------------------------------------------------------------------------------------|
F|---3---3---3---2~~~------------------------------------------------------------------------------|
C|-------------------------------------------------------------------------------------------------|
G|-0---0---0---0------0----------------------------------------------------------------------------|
C|-------------------------------------------------------------------------------------------------|


FINGERPICKING
ALTERNATE BETWEEN GUITARS

D|-----------------|-------------------------|-----------------|-----------------------------------|
A|---------6-------|------------10-----------|---------5-------|---5-----5-------------------------|
F|-----7-----7---7-|------10--------10----10-|-----5-----5---5-|-----5-----5~~---------------------|
C|---7---7-----7---|---10----10--------10----|---5---5-----5---|-----------------------------------|
G|-5---------------|-8-----------------------|-3---------------|-0-----3---------------------------|
C|-----------------|-------------------------|-----------------|-----------------------------------|

D|-----------------|-------------------------|-----------------|-----------------------------------|
A|---------6-------|------------10-----------|---------5-------|---5-----5-------------------------|
F|-----7-----7---7-|------10--------10----10-|-----5-----5---5-|-----5-----5~~---------------------|
C|---7---7-----7---|---10----10--------10----|---5---5-----5---|-----------------------------------|
G|-5---------------|-8-----------------------|-3---------------|-0-----3---------------------------|
C|-----------------|-------------------------|-----------------|-----------------------------------|

D|-----------------|-------------------------|-----------------|-----------------------------------|
A|---------6-------|------------10-----------|---------5-------|---5-----5-------------------------|
F|-----7-----7---7-|------10--------10----10-|-----5-----5---5-|-----5-----5~~---------------------|
C|---7---7-----7---|---10----10--------10----|---5---5-----5---|-----------------------------------|
G|-5---------------|-8-----------------------|-3---------------|-0-----3---------------------------|
C|-----------------|-------------------------|-----------------|-----------------------------------|

D|-----------------|-------------------------|-----------------|-----------------------------------|
A|---------6-------|------------10-----------|---------5-------|---5-----5-------------------------|
F|-----7-----7---7-|------10--------10----10-|-----5-----5---5-|-----5-----5~~---------------------|
C|---7---7-----7---|---10----10--------10----|---5---5-----5---|-----------------------------------|
G|-5---------------|-8-----------------------|-3---------------|-0-----3---------------------------|
C|-----------------|-------------------------|-----------------|-----------------------------------|


KICK ON HEAVY DISTORTION

VERSE 1

D|-------------------------------------------------------------------------------------------------|
A|-------------------------------------------------------------------------------------------------|
F|-------------------------------------------------------------------------------------------------|
C|-0~~~~~~~----0~~~-8~~~-8/7~~~-------0~~~-8~~~-8/7~~~---------------------------------------------|
G|-0~~~~~~~----0~~~-8~~~-8/7~~~-------0~~~-8~~~-8/7~~~---------------------------------------------|
C|-0~~~~~~~----0~~~-8~~~-8/7~~~-7b~~~-0~~~-8~~~-8/7~~~-7b~~~---------------------------------------|

D|-------------------------------------------------------------------------------------------------|
A|-------------------------------------------------------------------------------------------------|
F|-----------------------------------------------------------------4/6-----------------------------|
C|-0-0-0-0-0-0--8-8-8-8-8-8--7-7-7-7-7-7-7-7-7-7-7-7--1-1-1-1-1-1--4/6--5/3/7~~~-------------------|
G|-0-0-0-0-0-0--8-8-8-8-8-8--7-7-7-7-7-7-7-7-7-7-7-7--1-1-1-1-1-1--2/4--5/3/7~~~--8-7--------------|
C|-0-0-0-0-0-0--8-8-8-8-8-8--7-7-7-7-7-7-7-7-7-7-7-7--1-1-1-1-1-1-------5/3/7~~~------8-7/1b~~~----|

D|-------------------------------------------------------------------------------------------------|
A|-------------------------------------------------------------------------------------------------|
F|-----------------------------------------------------------------4/6-----------------------------|
C|-0-0-0-0-0-0--8-8-8-8-8-8--7-7-7-7-7-7-7-7-7-7-7-7--1-1-1-1-1-1--4/6--5/3/7~~~-------------------|
G|-0-0-0-0-0-0--8-8-8-8-8-8--7-7-7-7-7-7-7-7-7-7-7-7--1-1-1-1-1-1--2/4--5/3/7~~~--8-7--------------|
C|-0-0-0-0-0-0--8-8-8-8-8-8--7-7-7-7-7-7-7-7-7-7-7-7--1-1-1-1-1-1-------5/3/7~~~------8-7/1b~~~----|


HARMONIZED SOLO

D|-------------------------------------------------------------------------------------------------|
A|-------------------------------------------------------------------------------------------------|
F|-7~-7/10~-10/9~~-/5~--5/7~--7/10~-10/9~~-/5~--5/7~--7/10~-10/9~~-/5~--5/7~--7/10~-10/12~~-12/11~-|
C|-------------------------------------------------------------------------------------------------|
G|-5~-5/8~---8/7~~-/3~--3/5~--5/8~--8/7~~--/3~--3/5~--5/8~--8/7~~--/3~--3/5~--5/8~--8/10~~--10/9~~-|
C|-------------------------------------------------------------------------------------------------|

D|-------------------------------------------------------------------------------------------------|
A|-------------------------------------------------------------------------------------------------|
F|-11/10~-10/5~-5/7~~-7~~~~~-----------------------------------------------------------------------|
C|-------------------------------------------------------------------------------------------------|
G|-9/8~---8/3~--3/5~~-5~~~~~-----------------------------------------------------------------------|
C|-------------------------------------------------------------------------------------------------|


VERSE 2

D|-------------------------------------------------------------------------------------------------|
A|-------------------------------------------------------------------------------------------------|
F|-----------------------------------------------------------------4/6-----------------------------|
C|-0-0-0-0-0-0--8-8-8-8-8-8--7-7-7-7-7-7-7-7-7-7-7-7--1-1-1-1-1-1--4/6--5/3/7~~~-------------------|
G|-0-0-0-0-0-0--8-8-8-8-8-8--7-7-7-7-7-7-7-7-7-7-7-7--1-1-1-1-1-1--2/4--5/3/7~~~--8-7--------------|
C|-0-0-0-0-0-0--8-8-8-8-8-8--7-7-7-7-7-7-7-7-7-7-7-7--1-1-1-1-1-1-------5/3/7~~~------8-7/1b~~~----|

D|-------------------------------------------------------------------------------------------------|
A|-------------------------------------------------------------------------------------------------|
F|-----------------------------------------------------------------4/6-----------------------------|
C|-0-0-0-0-0-0--8-8-8-8-8-8--7-7-7-7-7-7-7-7-7-7-7-7--1-1-1-1-1-1--4/6--5/3/7~~~-------------------|
G|-0-0-0-0-0-0--8-8-8-8-8-8--7-7-7-7-7-7-7-7-7-7-7-7--1-1-1-1-1-1--2/4--5/3/7~~~--8-7--------------|
C|-0-0-0-0-0-0--8-8-8-8-8-8--7-7-7-7-7-7-7-7-7-7-7-7--1-1-1-1-1-1-------5/3/7~~~------8-7/1b~~~----|


EXTRADITION

D|-------------------------------------------------------------------------------------------------|
A|-------------------------------------------------------------------------------------------------|
F|-------------------------------------------------------------------------------------------------|
C|-0-0-0-3~-3-5-3-1~-0-0-0--0-0-0-3~-3-5-3-1~-0-0-0--0-0-0-3~-3-5-3-1~-0-0-0--0-0-0-3~-3-5-3-1~-0--|
G|-0-0-0-3~-3-5-3-1~-0-0-0--0-0-0-3~-3-5-3-1~-0-0-0--0-0-0-3~-3-5-3-1~-0-0-0--0-0-0-3~-3-5-3-1~-0--|
C|-0-0-0-3~-3-5-3-1~-0-0-0--0-0-0-3~-3-5-3-1~-0-0-0--0-0-0-3~-3-5-3-1~-0-0-0--0-0-0-3~-3-5-3-1~-0--|
PM - - -    - - -    - - -  - - -    - - -    - - -  - - -    - - -    - - -  - - -    - - -    -

D|-------------------------------------------------------------------------------------------------|
A|-------------------------------------------------------------------------------------------------|
F|-------------------------------------------------------------------------------------------------|
C|-0-0---0-0-0-3--0-0-0-3--0-0-0-3--0-0-0-3--0-0-0-3--0-0-0-3---0-0-0-3~-3-5-3-1~-0-0-0--0-0-0-3~--|
G|-0-0---0-0-0-3--0-0-0-3--0-0-0-3--0-0-0-3--0-0-0-3--0-0-0-3---0-0-0-3~-3-5-3-1~-0-0-0--0-0-0-3~--|
C|-0-0---0-0-0-3--0-0-0-3--0-0-0-3--0-0-0-3--0-0-0-3--0-0-0-3---0-0-0-3~-3-5-3-1~-0-0-0--0-0-0-3~--|
PM - -   - - -    - - -    - - -    - - -    - - -    - - -     - - -    - - -    - - -  - - -

D|-------------------------------------------------------------------------------------------------|
A|-------------------------------------------------------------------------------------------------|
F|-------------------------------------------------------------------------------------------------|
C|-3-5-3-1~-0-0-0--0-0-0-3~-3-5-3-1~-0-0-0--0-0-0-3~-3-5-3-1~-0-0-0--0-0-0-3~-3-5-3-1~-0-0-0-------|
G|-3-5-3-1~-0-0-0--0-0-0-3~-3-5-3-1~-0-0-0--0-0-0-3~-3-5-3-1~-0-0-0--0-0-0-3~-3-5-3-1~-0-0-0-------|
C|-3-5-3-1~-0-0-0--0-0-0-3~-3-5-3-1~-0-0-0--0-0-0-3~-3-5-3-1~-0-0-0--0-0-0-3~-3-5-3-1~-0-0-0-------|
PM - - -    - - -  - - -    - - -    - - -  - - -    - - -    - - -  - - -    - - -    - - - 

END
Show more