Slipknot
IOWA - Gently
Tabbed by: Lord Veto
Tunning: B,E,A,D

Intro
D|-------------------------------------|
A|-------------------------------------|
E|-------------------------------------|x8
B|-3-333-333333/77772222-22-2222/555-|

Intro II
D|----------------------------------------|
A|-------------0-1-3333-------------------|
E|----------------------------------------|x4
B|-3-333-333333---------2222-22-2222/555-|

Intro III(Heavy)
D|-------------------------------------|
A|-------------------------------------|
E|-------------------------------------|x4
B|-3-333-33-3333/777-2-222-22-2222/55-|

Pre - Verse
D|---------------------|
A|---------------------|
E|---------------------|
B|-3~~---2~~---3~~-2~~-|

Verse
D|---------------|
A|----0-1-333----|
E|---------------|x2
B|-3~---------2~-|

D|----------|
A|----------|
E|----------|x1
B|-3~----2~-|

"And whatever may come, it slowly dissapears!!!..."
In this part you play Intro III, 8 times.

Bridge I
D|------|
A|------|
E|------|x4
B|-32~-|

Heavy bridge
D|--------------------|
A|--------------------|Listen song for timing
E|--------------------|x8
B|-0003--2-4-1--0-1-0-|

Then play this
D|------|
A|------|
E|------|x9
B|-0003-|

Then play this until the end
D|--------------------|
A|--------------------|
E|--------------------|
B|-0003--2-4-1--0-1-0-|

Well that is all, pretty cool song to play, listen song for timing
play each riff where it goes and have fun.

Please rate this tab.
Show more