i actually got a hold of a recorded version of this song and it is a real song that they should have left on the volume 3 album cuz its one of my favorites 
tuning: B F# B E

intro
-----------------------------------------------------------------------------------------
-----------------------------------------------------------------------------------------
-(0)-(0)----------------------------------------------------------------------------------
--0---0---8/7--7/8--9/0--5/0-4/0-5--5--5--5--9--9--9--9---4---4--4---4--0--0--0--0-------

verse 1 & 3
-------------------------------------------------------------------------------------------------------------
-----------------------------------------------------------------------------------------------------------
----------------------------------------------------------------------------4^------------------------------
-5--5--5--5---9--9--9--9---4--4--4--4--0--0--0--0--------0--0---4/5--0---0------0--0-4/5---7/0/5/0/4/5/0----

chorus
------------------------------------7--6------------------------------------------------
-------------------------------4--7-------5---7--7---------------6^----------------------
----------0--0--9---9--5--6-4------------------------------6--6--------------------------
----8--8--------------------------------------------6--6----------------------------------

verse 2( acoustic part)/ outro
--------------------------------------------------
--------------------------------------------------
--------2-----4-----0--0--0--0---------------------
--0--0-----0-----0--------------0-0---------------

song structure:  intro 2x
                 verse 1
                 chrous
                  verse 2
                 chrous 
                 verse 3
                 chrous
                  outro
Show more