tabbed by. thad. (please rate!)
Intro
D-----------------------|------------------
A-----------------------|------------------  X3
E-----------------------|------------------
A--------------------8/-|-0-0-0-1-0-0-0-1--

D-----------------------------
A-----------------------------
E-----------------------------
A-0----------------------8~/--

1st Verse  (0:31)
D----------------------------------
A----------------------------------  X3
E-----------4/3--------------------
A-0-0-3/2-0-----4--3-0-0-8-0-1--1--

1st Chorus  (0:50)
D------------------------------
A------------------------------  X2
E------------------------------
A-2--5-5~-4--4---6--5-6~-7--8--

D---------------
A---------------  X4
E---------------
A-6--5-6~-7--8--

(1:09)
D----------------------
A----------------------
E----------------------
A----------------8~/--

2nd Verse  (1:11)
D-----------------------------------
A-----------------------------------  X4
E-----------------------------------
A-0-0-0-1-0-0-0-1--0-0-13-3/2-35--

2nd Chorus  (1:30)
D------------------------------
A------------------------------  
E------------------------------
A-2--5-5~-4--4---6--5-6~-7--8--

D-----------
A-----------
E-----------
A----0-1-0--

Interlude  (1:53)
D----
A----
E----
A-3--

D---------------------------------------
A---------------------------------------
E-9/-------9/-------9/------------------
A-----------------------0-0-6/5--0-5-3--

(2:03)
D---------------------------------------------------------------------------
A---------------------------------------------------------------------------
E------------------------------------------------------------------------3--
A-0-1-0-3-0-0-0-0--0-1-2-3-0-1-0-8--0-1-2-3-0-0-0-0--0--6/5--0--5--3--0-----

D-------------------------------------------------------------
A-------------------------------------------------------------
E-------------------------------------------------------------
A-0--1--0--3--0--0--0--0--0--6/5--0--5--3----0--6/5--0--5--3--

3rd Verse  (2:22)
D------------------------------------
A------------------------------------                   -
E------------------------------------ 		|
A-0-1-0-3------1-2-3---1--8---1-2-3--  		|  X2
 					|
D--------------------------------------------            |
A--------------------------------------------           -
E--------------------------------------------
A-1-3-0---0-1-0-3-----1-2-3---1--8----1-2-3--

Breakdown Chorus  (2:41)
D------
A------
E------
A-2~/--

D-------------------------------------------------
A-------------------------------------------------
E-------------------------------------------------
A-2~----------------------2~--------0-0----1--2~--

D-------------------------------
A-------------------------------
E-------------------------------
A-2~--0-0-0-0--1-1-5-5-0-0-0-0--

Outro-Chorus  (3:19)
D------------------------------
A------------------------------  
E------------------------------
A-2--5-5~-4--4---6--5-6~-7--8--

D-----------------------------------------------------------
A-----------------------------------------------------------
E-----------------------------------------------------------
A--------0-1-0-3-0-0-0-0--0-1-2-3-0-1-0-8--0-1-2-3-0-0-0-0--

D-----------------------------
A-----------------------------
E-----------------------------
A-0-6/5-0-5-3-0-3--0-6/5-0-5--

paul grey is a bad ass bass player. stay sic!
Show more