ARTIST:SILPKNOT
SING:LIBERATE
TITL SLIPKONT
TABED BY WARLOCK

INTRO
G------------------------------------------------------------
D------------------------------------------------------------
A------------------------------------------------------------
E------------------------------------------------------------
B-4--0---00---000--00----------------------------------------

RIFF1
G-------------------------------------------------------------
D-------------------------------------------------------------
A-------------------------------------------------------------
E-------------------------------------------------------------
B--1-0---0-1-0------0-------4---------------------------------
              BEND LAST NOTE
RIFF 2
G-------------------------------------------------------------
D-------------------------------------------------------------
A-------------------------------------------------------------
E-------------------------------------------------------------
B---1-0---0-0-0-0-0---0-0-0---1-00--0-1-0----4----------------
               BEND LAST NOTE

RIFF 3
G-------------------------------------------------------------
D-------------------------------------------------------------
A-------------------------------------------------------------
E-------------------------------------------------------------
B---0-0-----0-0-----0-0----0-0--------0-0---------------------

G-------------------------------------------------------------
D-------------------------------------------------------------
A-------------------------------------------------------------
E---7--8------8--7-----7--8---8--7------------------------------
B-------------------------------------------------------------
Show more