RIFF 1
D|----------
A|----------
E|----------
B|-0-0-1P0--

RIFF 2
D|-------------
A|-------------
E|-------------
B|1P0-1P0-0-0--

RIFF 3
D|--------------------
A|--------------------
E|---------2-2-2-2----
B|1-1-1-1-------------

RIFF 4
D|------------------
A|------------------
E|------------------  LISTEN TO THE TRACK FOR THE TIMING
B|-0-6-5-3-1-3-0-1-3

RIFF 5
D|-----------------------------------------
A|-----------------------------------------
E|-----------------------------------------
B|-0-0-1P0--0-0-0-1P0--0-0-0-1P0--0-0-0-1P0

RIFF 6
D|------------------------
A|------------------------
E|------------------------
B|-0-0-0-0-0-1-0-0-0-0-0-1
Show more