TABBER: Sillich


Tuning B F# B E


E |--------------------------------------------------|
B |--------------------------------------------------|
F#|--------------------------------------------------|
B |-65--0-0--32--0-0--65--0-0--32--0-0-0-0-0-0---|


Riff 2
E |--------------------------------------------------|
B |--------------------------------------------------|
F#|------------2--3-----2---------------2--3-----2---|
B |0--1--0--1--------2------0--1--0--1--------2------|


Fill:
E |----------------------------------|
B |----------------------------------|
F#|----------------------------------|
B |--0~------1~-------0~---------1~--|


Verse:
E |------------------------------------------------------------|
B |------------------------------------------------------------|
F#|------------------------------------------------------------|
B |17-0-1-1-0-0H1----0-1-1-05-----0-1-1-0-0H1-----0-1-1-05--|


Fill:
E |----------------------------------|
B |----------------------------------|
F#|----------------------------------|
B |--0~------1~-------0~---------1~--|


Verse 2:
E |------------------------------------------------------|
B |------------------------------------------------------|
F#|------------------------------------------------------|
B |0-1-1-0-0H1--0-0-3-3--0-0-1-1--0-0-4-3--0-06-6-5-5---|


Interlude:
E |--------------------------------------------------|
B |--------------------------------------------------|
F#|------------0-------------0-------------0---------|
B |0-0-1---4-4---1-1-1--4-4-----0-0-1--4-4---1-1--1--|


Chorus:
E |----------------------------------------------------------------|
B |----------------------------------------------------------------|
F#|----------------------------------------------------------------|
B |-7-0-81-1-4-4---7-0-81-1-4-4---7-0-81-1-4-4---7-0-81-1-4-4--|


Fill:
E |---------------------------------|
B |---------------------------------|
F#|---------------------------------|
B |17--0-0--0-0--0-0--0-0--1-1-1---|


Bridge:
E |------------------------------------|
B |------------------------------------|
F#|------------------------------------|
B |1-1-1-1-1-1-2-2---1-1-1-1-2-2-4-4---|
Show more