Normal Tunning.
This song is easy to play but it's quite fast, so listen carefully.


** Intro 1 **

G|--------------------------------------------|
D|--------------------------------------------|
A|-7-6-0-0-4-3-0-0-7-6-0-0-4-3-0-0-3--3--3--3-|
E|--------------------------------------------|
B|--------------------------------------------|

** Intro 2 **

G|----------------------------------|
D|----------------------------------|
A|-66667777666677773333444433334444-|
E|----------------------------------|
B|----------------------------------|

** Main Riff **

G|--------------------------------------------------|
D|--------------------------------------------------|
A|--------------------------------------------------|
E|-0-1-00-1-0---0-1-00-1-3---0-1-00-1-0---0-1-00-3--|
B|--------------------------------------------------|

** Verse **

G|--------------------------------------------------|
D|---------------------------------------65---------|
A|--------------------------------------------------|
E|-0-1-00-1-0---0-1-00-4-3--33-33-33333-------------|
B|--------------------------------------------------|

** First Bridge **
(play it fast)

G|-4---5-1-|
D|---------|
A|---------|
E|---------|
B|---------|

** Bridge II **

G|--------------------|
D|--------------------|
A|--------------------|
E|-01-01-01-01-010010-|
B|--------------------|

** CHORUS PEOPLE=*** **

G|--------------|
D|--------------|
A|--------------|
E|--------------|
B|-(2)-000-2366-|

** Bridge III **

G|--------------|
D|--------------|
A|--------------|
E|--------------|
B|-1-1-1-1-1-01-|

** Riff II **

G|--------------------------|
D|--------------------------|
A|--------------------------|
E|--------------------------|
B|-20-20-20-23--20-20-2--3--|
Show more