D|---------------------------------------- 
A|---------------------------------------- 
E|---------------------------------------- 
A|5-4-0-0-3-2-0-0-5-4-0-0-3-2-0-0--0--0--0 

D|--------------------------------------------------------------- 
A|2-2-2-2-2-2-2-2-----------------2-2-2-2-2-2-2-2---------------- 
E|----------------3-3-3-3-3-3-3-3-----------------3-3-3-3-3-3-3-3 
A|--------------------------------------------------------------- 

D|--------------------------------------------------------------- 
A|--------------------------------------------------------------- 
E|--------------------------------------------------------------- 
A|1-1-1-1-1-1-1-1-3-3-3-3-3-3-3-3-2-2-2-2-2-2-2-2-4-4-4-4-4-4-4-4 

D|--------------------------------------------------------------- 
A|2-2-2-2-2-2-2-2-----------------2-2-2-2-2-2-2-2---------------- 
E|----------------3-3-3-3-3-3-3-3-----------------3-3-3-3-3-3-3-3 
A|--------------------------------------------------------------- 

D|------------------- 
A|------------------- 
E|------------------- 
A|1--1--1--1 / 12  1 

D|----------------------------- 
A|----------------------------- 
E|----------------------------- 
A|0-3-2-0-2-0---0-3-2-0-5(bend) 

D|----------------------------------------- 
A|----------------------------------------- 
E|----------------------------------------- 
A|0-2-0-2---4---0-2-0-2---4---0-2-0-5(bend) 

D|--------------------- 
A|2~~3~~------2~~3~~--- 
E|-------3~2--------3~2 
A|--------------------- 

D|--------------------------- 
A|2~~3~~------2--2--2--2-----
E|-------3~2--------------3~2(/12) once at the end 
A|--------------------------- 

D|------------------------------- 
A|------------------------------- 
E|------------------------------- 
A|0-2-0-1-0-1-0---0-2-1-0-5(bend) 

D|------------------------------------------------- 
A|------------------------------------------------- 
E|------------------------------------------------- 
A|1-1-1---1-1---1-1---1-1---1-1-1-1-1-1---1-1---1-1 

D|------------------------------- 
A|------------------------------- 
E|------------------------------- 
A|0-2-0-1-0-1-0---0-2-1-0-5(bend) 

D|---------------- 
A|2~~3~~----2~~3~~ 
E|------3~2------- 
A|---------------- 

D|--------------- 
A|--------------- 
E|--------------- 
A|8-8-0-9-0-0-5-5 

D|--------------- 
A|--------------- 
E|--------------- 
A|1-1-1-2-1-1-3-4 

D|------- 
A|------- 
E|------- 
A|1~~~~~~ 

D|--------------- 
A|--------------- 
E|--------------- 
A|8-8-0-9-0-0-5-5 

D|---------------------------------------- 
A|---------------------------------------- 
E|---------------------------------------- 
A|5-4-0-0-3-2-0-0-5-4-0-0-3-2-0-0--0--0--0 

the tuning is AEAD like if you were to lay the guitar on your lap. the lower the note the lower on the tab email me about errors or questions at elastomania_man@hotmail.com
Show more