Artist:Slipknot
Song:People=***
Album:Iowa	
tabbed by:maggotmaykoe

	okay this song is simple just follow the instructions.
keep the bass up mid down and treble.have fun and knock ur self out.


key:
.....=palm muting 
//=legato slide up
\=legeto slide down
/=slide up
=slide down
^=bends
~=vibratos
h=hammer ons
p=pull offs
*=tremolo pick
x=muted strings

this song is in 4/4 if u dont know what that means its okay.
but thats how i tabbed the song so u know the beat.mick
is guitar 1 and james is guitar 2.the tunning is c#,g#,e,b,f#,B
thats from high to low and its at about 216 bpm.this song
took me awile i saw them in concert and wrote some things
down i saw the disasterpieces video and treid to get and did some
stuff by ear.

		Intro

gtr1>r2
 
  1----2---3----4---  1----2---3----4----  1   2   3   4
4|-------------------|-------------------|----------------|
-|-------------------|-------------------|----------------|
4|-------------------|-------------------|----------------| 0.00-0.03
 |-------------------|-------------------|----------------|
 |-6\5-----3\2-----|-6\5-----3\2-----|-0---0---0---0--|
 |-6\5-0-0-3\2-0-0-|-6\5-0-0-3\2-0-0-|-0---0---0---0--|
        ...      ...      ...        ....  .   .   .   .  

 1   2  3  4     1  2  3  4
|-------------|--------------|
|-------------|--------------|   gtr1 and 2
|-------------|--------------|   2x
|-------------|--------------|  0.04-0.07
|-------------|--2*-3*----2*-|
|-0*-1*-0*-1*-|--------3*----|

note: on the next paert i tried to layer it but the 
2 guitars play this on top of each other
  
  1     2-------      3     4-------
|--------16/18~~~------------16/18~~~-|
|-------------------------------------|
|-------------------------------------|	gtr2
|-------------------------------------|
|-------------------------------------| 0.08-0.12
|-1-------------------1---------------|

  1     2             3     4
|-------------------------------------|
|-11*===========11*=========14*=======|
|-x*============x*==========13*=======| gtr1
|-8*============8*==========11*=======| note:== means to keep
|-------------------------------------|		doing the note.
|-------------------------------------|0.08-0.12

  1  2  3  4    1  2  3 4
|-------------|------------|
|-------------|------------|both gtrs
|-------------|------------|6x
|-------------|------------|
|-------------|-2*-3*---2*-|  0.13-0.21
|-0*-1*-0*-1*-|-------3*---|

this is at about 128 bpm

  1   1   1   2    3   4      1   2   3   4
|--------------------------|-----------------|
|--------------------------|-----------------|
|--------------------------|-----------------|	gtr1
|--------------------------|-----------------|0.22-0.26
|--------------------------|-----------------|
|-1--17-0-1-0h1~-0-1-1/5~-|-0-1-0h1-0-1-1/5-|

  1   1                                 1
|------------------------------------------|
|------------------------------------------|   gtr 2
|------------------------------------------|
|------------------------------------------|  0.22-0.26
|------------------------------------------|
|-5--5^2 steps-------------------------21-| 

   1   2    3   4
|-------------------|
|-------------------|
|-------------------|both gtrs 
|-------------------|6x
|-------------------|    0.27-0.38
|-0-1-0h1~-0-1-1/5~-|  

   1     2    3   4
|--------------------|
|--------------------|
|--------------------|both gtrs
|--------------------|4x
|-0-1-1-0h1--0-1-1/5-|    0.39-0.47
|-0-1-1-0h1--0-1-1/5-|  

	VERSE
   1  2     3      4    1   2        3   4
|---------------------|---------------------|
|---------------------|---------------------|
|---------------------|---------------------|both guitars
|---------------------|---------------------|4x
|---------------------|---------------------|    0.48-1.02
|-0-1-1~~-0-3-3~~-0-0-|-1~-0-4-3-~~-0-6-5-5-| 

  1  2   3   4    1  2   3  4    1  2   3  4   1 2  3 4
|--------------|--------------|--------------|----------|
|--------------|--------------|--------------|----------|
|--------------|--------------|--------------|----------|gtr 1
|--------------|--------------|--------------|----------|do this on  1.03-1.10
|------------0-|------------0-|------------0-|----------|top of gtr2
|-0-0-1--4-4---|-1-1-1--4-4---|-0-0-1--4-4---|-1-1--1-0-|

           1             1   2   1       2       1   2
|--------------|--------------|--------------|----------|
|--------------|--------------|--------------|--6*-----|
|---------7*---|--------7*--7*|--7*-----7*---|------7*-| gtr2 
|--------------|--------------|--------------|----------|   1.03-1.10
|--------------|--------------|--------------|----------|
|--------------|--------------|--------------|----------| 

   1    2     3   4
|--------------------|
|--------------------|
|--------------------|both guitars 
|--------------------|4x
|-0-1-1-0h1--0-1-1/5-|    1.11-1.18
|-0-1-1-0h1--0-1-1/5-|    

note: this next part is a bit confusing listen to the
      song for the correct timing.


   1    2     3       4     1      2       3    4
|------------------------|------------------------|
|------------------------|------------------------|
|------------------------|------------------------|both guitars
|------------------------|------------------------|
|0-1-1-0-1--1-1-1-0--0-0-|-0-1--0-0-0-0--0-0-0--5-|  1.19-1.21
|0-1-1-0-1--1-1-1-0--0-0-|-0-1--0-0-0-0--0-0-0--5-| 

   1   2       3      4    1 2          3 4
|------------------------|------------------|
|------------------------|------------------|
|------------------------|------------------|both guitars
|------------------------|------------------|
|0-1-1-0-1--1-1-1-0--0-0-|-0-1--------------|    1.22-1.26
|0-1-1-0-1--1-1-1-0--0-0-|-0-1---------215-|

   1     2    3   4
|--------------------|
|--------------------|
|--------------------|both guitars 
|--------------------|4x  1.27-1.33
|-0-1-1-0h1--0-1-1/5-|
|-0-1-1-0h1--0-1-1/5-|

   1 2    3  4    1 2    3  4    1  2   3  4   1 2  3 4
|--------------|--------------|--------------|----------|gtr 1
|--------------|--------------|--------------|----------|
|--------------|--------------|--------------|----------|
|--------------|--------------|--------------|----------|  1.34-1.41
|------------0-|------------0-|------------0-|----------|
|-0-0-1--4-4---|-1-1-1--4-4---|-0-0-1--4-4---|-1-1--1-0-|

  1               1    2          1              1    2
|--------------|--------------|--------------|----------|
|--------------|--------------|--------------|-------6*-| gtr 2
|-7*-----------|--7*--7*------|---7*---------|--7*------|
|--------------|--------------|--------------|----------|  1.34-1.41
|--------------|--------------|--------------|----------|
|--------------|--------------|--------------|----------|


   Chorus

   1   2   3  4
|---------------|
|---------------|
|---------------| both guitars
|---------------| 8x
|-7-0-81-4-4-7-| 1.42-1.57
|-7-0-81-4-4-7-|


    interlude


Note there is a drum solo between 1.58-2.04

   1      1   2    3      4
|----|--------------------------|
|----|--------------------------|  2.05-2.13
|----|--------------------------|  GTR 1
|----|--------------------------|  4x guitar 2 joins in after the second time
|-17|0-0--0-0--0-0--0-0--1-1-1-|  note: just do meuseure 1 once 
|-17|0-0--0-0--0-0--0-0--1-1-1-|

   
   1    2    3    4     1    2    3    4
|--------------------|--------------------|
|--------------------|--------------------|2.14-2.42
|--------------------|--------------------|both guitars 
|--------------------|--------------------|
|-1-1--1-1--1-1--2-2-|-1-1--1-1--2-2--4-4-| 7x
|-1-1--1-1--1-1--2-2-|-1-1--1-1--2-2--4-4-|

note: after between 2.30-2.42 the rythm changes a bit u should check the song.

   1   2   3  4
|---------------| 2.43-2.57
|---------------|
|---------------|GTR 1
|---------------|8x gtr 2 joins in after the 4th time.
|---------------|
|-7-0-81-4-4-7-| 
  ..............

Note:there is a slight pause then a slide 3/21 on the low b string

   1   2  3  4
|---------------|
|---------------| 3.00-3.29
|---------------| both guitars
|---------------| 15x
|-7-0-81-4-4-7-|
|-7-0-81-4-4-7-|

     1        2         3       4    1  2           3
|-----------------------------------------------------|
|-----------------------------------------------------| both guitars
|-----------------------------------------------------| 
|-----------------------------------------------------| 1x 3.30-3.35
|-6\5-----3\2-----6\5-----3\2-----0-0-----------0-|
|-6\5-0-0-3\2-0-0-6\5-0-0-3\2-0-0-0-0-----------0-|
Show more