#-----------------------------------------------------------------------------#
#-- File created with Instab - http://www.pconline.com/~smcarey/instab.html --#
#-----------------------------------------------------------------------------#

Author/Artist: Slipknot
Title: People=****
Album: IOWA
Transcribed by: Sloth
Email: metaldeathlord@hotmail.com

B F# B E G# C#
216 Tempo

Riff 1
------------------------------------------------------------------------------
------------------------------------------------------------------------------
------------------------------------------------------------------------------
------------------------------------------------------------------------------
-6/5-----3/2-----6/5-----3/2-----3-3-3-3--------------------------------------
-6/5-0-0-3/2-0-0-6/5-0-0-3/2-0-0-3-3-3-3--------------------------------------
     . .     . .     . .     . .                                                                           

------------------------------------------------------------------------------
------------------------------------------------------------------------------
------------------------------------------------------------------------------
------------------------------------------------------------------------------
---------2-3---2--------------------------------------------------------------
-0-1-0-1-----3----------------------------------------------------------------
 . . . . . . . .    tremolo pick those notes     Riff 2                       

-----16/18b-------16/18b--16\------------------------------------------------
------------------------------------------------------------------------------
------------------------------------------------------------------------------
------------------------------------------------------------------------------
------------------------------------------------------------------------------
-1-----------1-------------------1-0------------------------------------------
 jim- fill gtr. 2                                                             

------------------------------------------------------------------------------
-11--------11---------11----------------------------14------------------------
------------------------------------9---------------12------------------------
-8---------8----------8-----------------------------11------------------------
------------------------------------------------------------------------------
------------------------------------------------------------------------------
 mick fill- gtr. 1 ........tremolo pick chords                                

------------------------------------------------------------------------------
------------------------------------------------------------------------------
------------------------------------------------------------------------------
------------------------------------------------------------------------------
------------------------------------------------------------------------------
-------------------1--/17\-0-1-1-0-0h1v--0-1-1-0/5--------------------------
 tempo change- 128                                      Riff 3                

------------------------------------------------------------------------------
------------------------------------------------------------------------------
------------------------------------------------------------------------------
------------------------------------------------------------------------------
-0-1-1-0-0h1--0-1-1-0/5-------------------------------------------------------
-0-1-1-0-0h1--0-1-1-0/5-------------------------------------------------------
 here we go again mother***er!!       Riff 4                                 

------------------------------------------------------------------------------
------------------------------------------------------------------------------
------------------------------------------------------------------------------
------------------------------------------------------------------------------
------------------------------------------------------------------------------
-0-1-1-0-0h1v--0-0-3-3v--0-0-1-1v--0-0-4-3v--0-0/6-6-5-5v---------------------
 come on down and see the idiot right here.....               Riff 5          

----------------------------10-11---------10---11-----------------------------
----------------------------------12-11---------------------------------------
------------------------------------------------------------------------------
------------------------------------------------------------------------------
------------------------------------------------------------------------------
------------------------------------------------------------------------------
  you live when im dead...   tremolo pick all notes       Riff 6              

------------------------------------------------------------------------------
------------------------------------------------------------------------------
------------------------------------------------------------------------------
------------------------------------------------------------------------------
-0-1-1-0-0h1--1-1-1-0--0-0--0-1--0-0-0-0---0-0-0--5---------------------------
-0-1-1-0-0h1--1-1-1-0--0-0--0-1--0-0-0-0---0-0-0--5---------------------------
 everybody hates me now....  Riff                    Riff 7                   

------------------------------------------------------------------------------
------------------------------------------------------------------------------
------------------------------------------------------------------------------
------------------------------------------------------------------------------
-0-1-1-0-0h1--1-1-1-0---0-0-0-1-----------------------------------------------
-0-1-1-0-0h1--1-1-1-0---0-0-0-1-----------------------------------------------
                                   Riff 7 Cont.                               

------------------------------------------------------------------------------
------------------------------------------------------------------------------
------------------------------------------------------------------------------
------------------------------------------------------------------------------
-7-0-81-1-4-4-7--7-0-81-1-4-4-7---------------------------------------------
-7-0-81-1-4-4-7--7-0-81-1-4-4-7---------------------------------------------
 People=***       Riff 8                                                     

------------------------------------------------------------------------------
------------------------------------------------------------------------------
-14--15----14---14--15----14---14--15----14---14--15----14---14--15-----------
------------------------------------------------------------------------------
-12--13----12---12--13----12---12--13----12---12--13----12---12--13-----------
------------------------------------------------------------------------------
  Riff 9 Chorus Backing                                                       

------------------------------------------------------------------------------
------------------------------------------------------------------------------
------------------------------------------------------------------------------
------------------------------------------------------------------------------
-17\-0--0--0--0--1-1---------------------------------------------------------
-17\-0--0--0--0--1-1---------------------------------------------------------
                     Riff 10                                                  

------------------------------------------------------------------------------
------------------------------------------------------------------------------
------------------------------------------------------------------------------
------------------------------------------------------------------------------
-1-1--1-1--2-2---1-1--1-1--4-4------------------------------------------------
-1-1--1-1--2-2---1-1--1-1--4-4------------------------------------------------
 Riff 11                                                                      

------------------------------------------------------------------------------
------------------------------------------------------------------------------
------------------------------------------------------------------------------
------------------------------------------------------------------------------
-7-0-8-1-1-4-4-7--7-0-8-1-1-4-4-7---------------------------------------------
-7-0-8-1-1-4-4-7--7-0-8-1-1-4-4-7---------------------------------------------
 . . . . . . . .  . . . . . . . .
Show more