enjoy this. I might not have the ending(the version im listening to is wierd...), but can fix that when 
this is put up....  
dont know the tuning, not gunna try to figure that out
x=mute
                           x4
]----------------------------|
]----------------------------|
]----------------------------|
]----------------------------|
]-0-0--0-0-0--0-0-0--0-0-0-1-|

                                  x4
]-----------------------------------|
]-----------------------------------|
]-----------------------------------|
]-----------------------------------|
]-0-0--0-0-0-0--0-0-0-0--0-0-0-0-1--|
pick up the pace(rest)

                x8
]----------------|
]----------------|
]----------------|
]----------------|
]-3-2-1-0-1-0-0--|

rest 2 riffs as guitars come in
                              x8
]-----------------------------|
]-----------------------------|
]-----------------------------|
]-----------------------------|
]-1-1-0-1-0--1-0--1-0-3-2-1-0-|

                                 x4
]---------------------------------|
]---------------------------------|
]---------------------------------|
]---------------------------------|
]-4-4-4-4-2-2-2-2-3-3-3-3-1-1-1-1-|

wait one riff of guitar.
                             x7
]-----------------------------|-----------|
]-----------------------------|-----------|
]-----------------------------|-----------|
]-----------------------------|-----------|
]-1-1-0-1-0--1-0--1-0-3-2-1-0-|-1-1-0-1-0-|

                                x4
]---------------------------------|
]---------------------------------|
]---------------------------------|
]---------------------------------|
]-4-4-4-4-2-2-2-2-3-3-3-3-1-1-1-1-|

                x4
]---------------|
]---------------|
]---------------|
]-0--x--5-2-x-4-|

         x4
]-------------|
]-------------|
]-------------|
]-------------|
]-1--1-1--1-1-|

    x4
]---|
]---|
]---|
]---|
]-1-|

                   x4
]-------------------|
]-------------------|
]-------------------|
]-------------------|
]--3--5-2--6--2-3-0-|

             x4
]-------------|
]-------------|
]-------------|
]-------------|
]-1--1-1--1-1-|

                  x28<---very hard to count plz let me know if you find this wrong.
]-------------------|
]-------------------|
]-------------------|
]-------------------|
]-5-5-5-0-2-3-0-1-2-|
Show more