Slipknot
Slipknot - (sic)
Tabed by: Lord Veto
Tunning: B,E,A,D

Listen song for tming

Intro
D|-----------------|
A|-----------------|
E|-----------------|
B|-00-000-000-0001-|

After "Here comes the pain!"
D|------------|
A|------------|
E|------------|
B|-32-0-1-00-|

Pre - verse (Just before entering the verse)
D|-------|
A|-------|
E|-------|
B|-1/2-3-|

Verse I:

Part I "Enemy, show me what you wanna be..."
D|------------------------|
A|------------------------|
E|------------------------|
B|-0-1-0-1-0--00--1/2-2-3-|

Part II "What the hell am I sayin I dont know about malevolent..."
D|---------------------|
A|---------------------|
E|---------------------|
B|-1-1-1-1-2-3-|

Part III "Walls!, let me fall, f**k you all!..."
D|------------------------|
A|------------------------|
E|------------------------|
B|-0-1-0-1-0--00--1/2-2-3-|

D|---------------|
A|---------------|
E|---------------|
B|-0-1-0-1-0--00-|

Post - Verse
D|----------|
A|----------|
E|----------|
B|--4-2-3-1-|

Repeat pre - verse

Then play verse I Part I 4 times

Verse II "Who the f**k am I to criticize your twisted state of mind?..."
D|---------------------|
A|---------------------|
E|---------------------| x3
B|-1-1-1-1-2-3-|

D|------------|
A|------------|
E|------------|
B|-1-1-00-|

Repeat Post - Verse

Bridge I
D|-----------------|
A|-----------------|
E|--7----8-------9-| x4
B|----00----5-00---|

Bridge II
D|--------------|
A|--------------|
E|-7/8-7/8-0-00-| x4
B|--------------|

Verse III "I've just begun, Its about that time..."
D|---------------|
A|---------------|
E|---------------|
B|-0-0-0-0-0-0/1-|

Bridge III
D|-----------------|
A|-----------------|
E|---------1-------|
B|-0-0-3-2---0-3-2-|

Verse IV "You can't kill me 'cause Im already deep inside you"
D|---------------|
A|---------------|
E|---------------| x4
B|-0-0-0-0-0-0/1-|

D|---------------------------|
A|---------------------------|
E|---------------------------| Then play this until the end
B|-4-3-2-1-0-4-3-2-1-0-3-2-0-|


Well thats all, thats the order, play each riff where 
it goes, listen song for timing and have fun!

Please rate this tab
Show more