WAIT AND BLEED (Bassline)
As recorded by Slipknot
(From the 1999 Album SLIPKNOT)
Words and Music by Shawn M. Carhan, Paul Gray, Nathan Jordison and Corey Taylor

 

Gtr I (B E A D G) - 'Standard'


 Chorus
  Fast Rock Q=184
 4/4
  Gtr I
  Q.   E +E  E E E   +E  E E E +E  E E E   +Q.   E +E  Q  E
|------------------|---------------------|------------------|
|------------------|---------------------|------------------|
|------------------|---------------------|------------------|
|------------------|---------------------|------------------|
|-0----7-(7)-7-7S1-|-(1)-1-1S8-(8)-8-8-0-|-(0)---7-(7)-7S=1-|


  +E  Q  E +E  E E E   +Q.   E +E  Q  E   +E  E E E +E  E E E
|--------------------|------------------|---------------------|
|--------------------|------------------|---------------------|
|--------------------|------------------|---------------------|
|--------------------|------------------|---------------------|
|-(1)-1S=8-(8)-8-8-0-|-(0)---7-(7)-7S=1-|-(1)-1-1S8-(8)-8-8-0-|


  +E  E E E +E  Q  E   +E  E E E +E  E E E   Q  E E +E  E E E
|--------------------|---------------------|------------------|
|--------------------|---------------------|------------------|
|--------------------|---------------------|------------------|
|--------------------|---------------------|------2-(2)-2-----|
|-(0)-0-0-7-(7)-7S=1-|-(1)-1-1S8-(8)-8-8-8-|-0--0---------0-1-|


  +E  E E E +E  E E E   Q  E E +E  E E E   +E  E E E E E E E
|---------------------|------------------|-------------------|
|---------------------|------------------|-------------------|
|---------------------|------------------|-------------------|
|---------4-(4)-4-4-4-|------2-(2)-2-----|-------------------|
|-(1)-1-1-------------|-0--0---------0-1-|-(1)-1-1-1-1-1-1-1-|


  Q  E E +E  E E E   +E  E E E +E  E E E   Q  E E +E  E E E
|------------------|---------------------|------------------|
|------------------|---------------------|------------------|
|------------------|---------------------|------------------|
|------2-(2)-2-----|---------4-(4)-4-4-4-|------2-(2)-2-----|
|-0--0---------0-1-|-(1)-1-1-------------|-0--0---------0-1-|


  +E  E E E E E S S E   S S E E S S E E Q    S S E E S S E E Q
|---------------------|--------------------|---------------------|
|---------------------|--------------------|---------------------|
|---------------------|--------------------|---------------------|
|-----3---3---3-3-3-3-|--------------------|---------------------|
|-(1)---1---1---------|-0-0-0---0-0-0------|-0-0-0---0-0-0-------|


                                            Verse
  S S E E S S E E Q    S S E E S S Q  Q      S S E E S S E E E E
|--------------------|--------------------||---------------------|
|--------------------|--------------------||---------------------|
|--------------------|--------------------||---------------------|
|--------------------|--------------------||---------------------|
|-0-0-0---0-0-0------|-0-0-0---0-0-0--7--||-0-0-0---0-0-0-1-4-1-|


  S S E E S S E E E E     S S E E S S E E E E   S S E E S S E E E E  7x
|---------------------||----------------------|----------------------||
|---------------------||o---------------------|---------------------o||
|---------------------||----------------------|----------------------||
|---------------------||o---------------------|---------------------o||
|-0-0-0---0-0-0-1-4-1-||--0-0-0---0-0-0-1-4-1-|-0-0-0---0-0-0-1-4-1--||


 Chorus
  Q  E E +E  E E E   +E  E E E +E  E E E   Q  E E E E E E
|------------------|---------------------|----------------|
|------------------|---------------------|----------------|
|------------------|---------------------|-2--2-2-2-0-2-3-|
|------2-(2)-2-----|---------4-(4)-4-4-4-|----------------|
|-0--0---------0-1-|-(1)-1-1-------------|----------------|


  +E  E E E E E E E   Q  E E +E  E E E   +E  E E E +E  E E E
|-------------------|------------------|---------------------|
|-------------------|------------------|---------------------|
|-(3)-2-1-0---------|------------------|---------------------|
|-----------4-3-2---|------2-(2)-2-----|---------4-(4)-4-3-4-|
|-----------------3-|-0--0---------0-1-|-(1)-1-1-------------|


  E E E E +E  E E E   E E E E E E S S E   S S E E S S E E E E
|-------------------|-------------------|---------------------|
|-------------------|-------------------|---------------------|
|-2-2-2-------------|-------------------|---------------------|
|-------3-(3)-3-----|---3---3---3-3-3-3-|---------------------|
|---------------0-1-|-1---1---1---------|-0-0-0---0-0-0-1-4-1-|


                                               Verse
  S S E E S S E E E E   S S E E S S E E E E     S S E E S S E E E E  8x
|---------------------|---------------------||-----------------------||
|---------------------|---------------------||o---------------------o||
|---------------------|---------------------||-----------------------||
|---------------------|---------------------||o---------------------o||
|-0-0-0---0-0-0-1-4-1-|-0-0-0---0-0-0-1-4-1-||--0-0-0---0-0-0-1-4-1--||


 Chorus
  Q  E E +E  E E E   +E  E E E +E  E E E   Q  E E E E E E
|------------------|---------------------|----------------|
|------------------|---------------------|----------------|
|------------------|---------------------|-2--2-2-2-0-2-3-|
|------2-(2)-2-----|---------4-(4)-4-4-4-|----------------|
|-0--0---------0-1-|-(1)-1-1-------------|----------------|


  +E  E E E E E E E   Q  E E +E  E E E   +E  E E E +E  E E E
|-------------------|------------------|---------------------|
|-------------------|------------------|---------------------|
|-(3)-5-3-0-5-3-0-0-|------------------|---------------------|
|-------------------|------2-(2)-2-----|---------4-(4)-4-3-4-|
|-------------------|-0--0---------0-1-|-(1)-1-1-------------|


  E E E E +E  E E E   +E  E E E E E S S E   Q  E E +E  E E E
|-------------------|---------------------|-------------------|
|-------------------|---------------------|-------------------|
|-2-2-2-------------|---------------------|-------------------|
|-------3-(3)-3-----|-----3---3---3-3-3-3-|------2-(2)-2------|
|---------------0-1-|-(1)---1---1---------|-0--0---------0-1--|


  E E E E +E  E E E   Q  E E +E  E E E   E E E E +E  E E E
|-------------------|------------------|-------------------|
|-------------------|------------------|-------------------|
|-------------------|------------------|-------------------|
|-------4-(4)-4-4-4-|------2-(2)-2-----|-------4-(4)-4-4-4-|
|-1-1-1-------------|-0--0---------0-1-|-1-1-1-------------|


  Q  E E +E  E E E   E E E E +E  E E E   Q  E E +E  E E E
|------------------|-------------------|------------------|
|------------------|-------------------|------------------|
|------------------|-------------------|------------------|
|------2-(2)-2-----|-------4-(4)-4-4-4-|------2-(2)-2-----|
|-0--0---------0-1-|-1-1-1-------------|-0--0---------0-1-|


                      Interlude
  +E  E E E E E E E    E E Q  H      Wx2
|-------------------||-------------|--------|
|-------------------||-------------|--------|
|-------------------||-------------|--------|
|-------------------||-------------|--------|
|-(1)-1-1-1-1-1-1-1-||-0-----------|--------|


  S S S S S S S S S S E E S S   E E E E S S Q  S S
|-----------------------------|--------------------|
|-----------------------------|--------------------|
|-----------------------------|--------------------|
|-----------------------------|---2----------------|
|-0-0-0-0-0-0-1-1-1-1-0-0-0-1-|-3---0-0-0-0-0--0-1-|


  S S S S S S S S S S E E S S   E E E E S S Q  S S
|-----------------------------|--------------------||
|-----------------------------|--------------------||
|-----------------------------|--------------------||
|-----------------------------|---2----------------||
|-0-0-0-0-0-0-1-1-1-1-0-0-0-1-|-3---0-0-0-0-0--0-1-||


   Bridge
    S S S S S S S S S S E E S S   E E E E S S Q  S S   4x
||------------------------------|----------------------||
||o-----------------------------|---------------------o||
||------------------------------|----------------------||
||o-----------------------------|---2-----------------o||
||--0-0-0-0-0-0-1-1-1-1-0-0-0-1-|-3---0-0-0-0-0--0-1---||


   Chorus
    E E E E E E E E   E E E E E E E E  8x E E E E E E E E
||------------------|------------------||-----------------|
||o-----------------|-----------------o||-----------------|
||------------------|------------------||-----------------|
||o-----------------|-----------------o||-----------------|
||--0-0-0-7-7-7-7S1-|-1-1-1-1-1-1-1-1--||-0-0-0-7-7-7-7S1-|


                     Outro
  E E E E E E E E     S S E E S S E E E E  7x S S E Q  H
|-----------------||-----------------------||---------------*|
|-----------------||o---------------------o||---------------*|
|-----------------||-----------------------||---------------*|
|-----------------||o---------------------o||---------------*|
|-1-1-1-1-1-1-1-1-||--0-0-0---0-0-0-1-4-1--||-0-0-0---------*|




--------------------------------------------------------------------------------


Duration Legend
---------------
W - whole; H - half; Q - quarter; E - 8th; S - 16th; T - 32nd; X - 64th; a - acciaccatura
+ - note tied to previous; . - note dotted; .. - note double dotted
Uncapitalized letters represent notes that are staccato (1/2 duration)
Irregular groupings are notated above the duration line
Duration letters will always appear directly above the note/fret number it represents the
duration for.  Duration letters with no fret number below them represent rests.  Multi-
bar rests are notated in the form Wxn, where n is the number of bars to rest for.  Low
melody durations appear below the staff

Tablature Legend
----------------
 h   - hammer-on
 p   - pull-off
 b   - bend
 pb  - pre-bend
 r   - bend release (if no number after the r, then release immediately)
 /  - slide into or out of (from/to "nowhere")
 s   - legato slide
 S   - shift slide
 - natural harmonic
[n]  - artificial harmonic
n(n) - tapped harmonic
 ~   - vibrato
 tr  - trill
 T   - tap
 TP  - trem. picking
 PM  - palm muting
n/  - tremolo bar dip; n = amount to dip
 n  - tremolo bar down
 n/  - tremolo bar up
/n  - tremolo bar inverted dip
 =   - hold bend; also acts as connecting device for hammers/pulls
 <> - volume swell (louder/softer)
 x   - on rhythm slash represents muted slash
 o   - on rhythm slash represents single note slash

Misc Legend
-----------
 |  - bar
||  - double bar
||o - repeat start
o|| - repeat end
*|  - double bar (ending)
 :  - bar (freetime)
 $  - Segno
 &  - Coda
Tempo markers -  = BPM(8/16=s8/s16), where s8 = swing 8ths, s16 = swing 16ths
Show more