Band: Slipknot
Song: Tattered and Torn
Author: Taken from the Slipknot Tab Book
Submitted by Dave "DeMoN" Theriaque
Tuning: B,F#,B,E,G#,C#

Intro
C#|--18p17h18-----------17h18p17h18-----------------|
G#|----------19h20p19h20-----------16h17p16h17p16--|
E |-------------------------------------------------|
B |-------------------------------------------------|
F#|-------------------------------------------------|
B |-------------------------------------------------|

Verse
(w/whammy pedal)
C#|--18---------------------------18------------------|
G#|---------------------------------------------------|
E |---------------------------------------------------|
B |---------------------------------------------------|
F#|---------------------------------------------------|
B |---------------------------------------------------|
                   (-2)                          (-2)

Outro
C#|----------------------------------|-----------------------------------|
G#|----------------------------------|-----------------------------------|
E |----------------------------------|-----------------------------------|
B |----------------------------------|-----------------------------------|
F#|--0-0--0--1h0---0--3h0---0-1h0--4-|--0-0--0--1h0---0--3h0---0-1h0--4--|
B |--0-0--0--1h0---0--3h0---0-1h0--4-|--0-0--0--1h0---0--3h0---0-1h0--4--|
play that a couple times, then play this
B |------------------------------------|------------------------------------|
F#|--0-0-0-0-1p0-0--0--3p0--0-0-1p0-4--|--0-0-0-0-1p0-0--0--3p0--0-0-1p0-4--|
B |--0-0-0-0-1p0-0--0--3p0--0-0-1p0-4--|--0-0-0-0-1p0-0--0--3p0--0-0-1p0-4--|

Don't blame me for this if it's totally wrong 
cuz i got this from the SlipKnoT Tab Book.
"DeMoN"
Show more