Song: Vermillion Pt. 2
Artist: Slipknot
Album: Vol. 3: Subliminal Verses
Tabber: Clyde 39
Tunning: Standard


Intro-
Guitar 1
|------0-------------------------------|
|-----(X)------------------------------|
|1--3--3-------------------------------|
|---------1--1-2-1-----4--4--4--3--3--3|
|------------------(0)-2--2--2--1--1--1|
|--------------------------------------|

Guitar 2
|--------------------------------------|
|--------------------------------------|
|--------------------------------------|
|----------------------4--4--4--4--4--4|
|6--6--6--6--6--6--6---2--2--2--2--2--2|
|4--4--4--4--4--4--4-------------------|



-Verse-
Guitar 1
|------0-------------------------------|
|-----(X)------------------------------|
|1--3--3-------------------------------|
|---------1--1-2-1-----4--4--4--3--3--3|
|------------------(0)-2--2--2--1--1--1|
|--------------------------------------|

Guitar 2
|--------------------------------------|
|--------------------------------------|
|--------------------------------------|
|----------------------4--4--4--4--4--4|
|6--6--6--6--6--6--6---2--2--2--2--2--2|
|4--4--4--4--4--4--4-------------------|



-Chorus-

Guitar 1 and Guitar 2
|----------------------------------------------|
|----------------------------------------------|
|----------------------------------------------|
|2--2--2--2--2--2--2--2--4--4--4--4--4--4--4--4|
|0--0--0--0--0--0--0--0--2--2--2--2--2--2--2--2|
|----------------------------------------------|



-Interlude-
Guitar 1        Guitar 2       Bass
|------------|  |----2-3-2-0|  |---------------|
|2---2-3-2-0-|  |2----------|  |---------------|
|--0---------|  |-----------|  |---------------|
|------------|  |-----------|  |---------------|
|------------|  |-----------|  |--------2-2-0-0|
|------------|  |-----------|  |3-3-2-2--------|

then follows the part between

Guitar 1 and Guitar 2
|------------------------------------|
|------------------------------------|
|------------------------------------|
|4--4--4--4--------------------------|
|2--2--2--2--5--5--5--5--4--4--4--4--|
|------------3--3--3--3--2--2--2--2--|

after that

Guitar 1
|------------|
|2---2-3-2-0-|
|--0---------|
|------------|
|------------|
|------------|

Guitar 2
|------------------------------------|
|------------------------------------|
|------------------------------------|
|------------------------4--4--4--4--|
|5--5--5--5--4--4--4--4--2--2--2--2--|
|3--3--3--3--2--2--2--2--------------|



-Ending-
Guitar 1
|------0-------------------------------|
|-----(X)------------------------------|
|1--3--3-------------------------------|
|---------1--1-2-1-----4--4--4--3--3--3|
|------------------(0)-2--2--2--1--1--1|
|--------------------------------------|

Guitar 2
|--------------------------------------|
|--------------------------------------|
|--------------------------------------|
|----------------------4--4--4--4--4--4|
|6--6--6--6--6--6--6---2--2--2--2--2--2|
|4--4--4--4--4--4--4-------------------|



-End-
Guitar 1
|------------------|
|--------17--16~~~~|
|13--15------------|
|------------------|
|------------------|
|------------------|

Guitar 2
|------------------|
|------------------|
|------------------|
|------------------|
|------------------|
|4~~~~~~~~~~~~~~~~~|
Show more