Intro/Chorus 
E------------------------------------------------
B------------------------------------------------
F#------------------------------------------------
B-0-0-0-7--7-7-7-1--1-1-1-8--8-8-8-0-------------           x4


E------------------------------------------------
B------------------------------------------------
F#------------------------------------------------
B-0-1-0--------0-1-0-----------------------------

Verse
E------------------------------------------------
B------------------------------------------------
F#------------------------------------------------
B-0-1-0-----0-1-0--1-4-1---0-1-0-----0-1-0--1-4-1

     
E------------------------------------------------
B------------------------------------------------
F#------------------------------------------------
B------3--7--0-1-0---0-1-0----3--7--0-1-0---0-1-0

Last Chorus
E------------------------------------------------
B------------------------------------------------
F#------------------------------------------------
B-0-0-0-7-7-7-7-1-1-1-1-1-1-1-1------------------

Outro
E------------------------------------------------
B------------------------------------------------
F#------------------------------------------------
B-0-1-0--0-1-0-4-1---0-1-0--0-1-0-4-1------------
Show more