Artist: Slipknot
Song: Wait and Bleed
Tabber: c0z420

Tuning B F# B E

Intro/Verse:
E |---------------------------------------------------------------------| 
B |---------------------------------------------------------------------|
F#|---------------------------------5--------------6-----------8-----8--| 
B |--0------7------1--------/8-------------7--------------8-------8-----| 
    I've   felt the hate rise up in me.____  Kneel down and clear the stone    

Verse part 1:
E |------------------------------------------------------------------------------| 
B |------------------------------------------------------------------------------| 
F#|---------------------5----------------------5-------------------------5-------| 
B |-0-0-0---0-0-0---0/6-----0-0-0---0-0-0--0/6--------0-0-0---0-0-0--0/6---------| 
                                                                               
Verse part 2:
E |------------------------------------------------------------------------------| 
B |------------------------------------------------------------------------------| 
F#|------------------------------------------------------------------------------| 
B |-0-0-0---0-0-0--------------0-0-0---0-0-0--1--4--1---0-0-0---0-0-0--1-4-1-----| 
                  Good-bye!          Verse then back to chorus                 

Breakdown:
E |---------------------------| 
B |---------------------------| 
F#|-----------12--------------| 
B |-12h13h15-------0--0-12^---| 
                            
Outro:
E |------------------------------------------------------------------------------| 
B |------------------------------------------------------------------------------| 
F#|------------------------------------------------------------------------------| 
B |-0-0-0---0-0-0---1--4--1----0-0-0---0-0-0---1--4--1----0-0-0---0-0-0---1--4---| 
     
E |---------------------------------| 
B |---------------------------------|
F#|---------------------------------|
B |-1----0-0-0---0-0-0---1--4--1----|
Show more