Slipknot
Wait and Bleed
Tuning - B, F#, B, E ( Drop D then 1 and 1/2 steps down)

  Intro/Chorus 1 (0:00)
 E:--------------------------|------------------------------|----------
 B:--------------------------|------------------------------|----------
F#:--------------------------|------------------------------|----------
 B:--0---0--7--(7)--7--7--1-|-(1)--1--1-/-8--(8)--8------0-|-(0)-0--0-

 E:----------------|--------------------------------|------------------
 B:----------------|--------------------------------|------------------
F#:----------------|--------------------------------|------------------
 B:--7--(7)--7--1-|--(1)--1--1-/-8--(8)--8-8---0--|--(0)--0--0-7-(7)

 E:-----------|--------------------------|----------------------------|
 B:-----------|--------------------------|----------------------------|
F#:-----------|--------------------------|----------------------------|
 B:--7--7--1-|-(1)--1-/-8--(8)--8--8--8-|--0---0--0--0---7--7--0--1--|

 E:---------------------------|------------------------|--------------
 B:---------------------------|------------------------|--------------
F#:---------------------------|------------------------|------------1-
 B:-1--1--1--1--1--1--1--1--0-|--0--0-0-0--7---7--0--1-|-(1)--1--1----

 E:---------------|-----------------------------|---------------------
 B:---------------|-----------------------------|---------------------
F#:--(1)--1-------|-----------------------------|-------------1--(1)-
 B:----------1--1-|--0--0-0-0--7--(7)---7--0--1-|--1--1---1-----------

 E:----------|--------------------------|--------------------------||
 B:----------|--------------------------|--------------------------||
F#:--1-------|--------------------------|------------1--1----------||
 B:-----1--0-|--0-0-0-0--7--(7)--7--0--1|--(1)--1----------1---1--||

 E:--------------------r-------------------------|
 B:--------------------e-------------------------|
F#:--------------------s-------------------------|
 B:--0-1-0-----0-1-0---t---0-1-0--0-1-0---7-----|
Verse 1 (0:28) 
 E:----------------------------
 B:---------------------------- Repeat 7 Times (Until The Chorus)
F#:----------------------------
  Figure 1
2nd Chorus (0:49) and 3rd Chorus (1:13)
 E:---------------------------|---------------------------|-----------
 B:---------------------------|---------------------------|-----------
F#:---------------------------|---------------------------|-----------
 B:--0--0--0--7--(7)--7--7--1-|-(1)--1--1--0-/-8--8--8--12|--(12)-12--

 E:------------------------|----------------------------------|
 B:------------------------|----------------------------------|
F#:------------------------|----------------------------------|
 B:--12--7--12--10--12--13|--(13)--12---10--12--10-9-8-7--3-|

 E:-------------------------|----------------------------------|
 B:-------------------------|----------------------------------|
F#:-------------------------|----------------------------------|
 B:--0--0--0--7--(7)--7--7-1|--(1)--1---1--8--(8)--8---8----0-| 
 
 E:-----------------------------|--------------------------------||
 B:-----------------------------|--------------------------------||
F#:-----------------------------|--------------------------------||
 B:--0--0--0--7---(7)--7--7----1|--(1)--1--1-8--(8)---8---8--7--||

 E:-----------------------|
 B:-----------------------|
F#:-----------------------|
 B:-0-1-0--0-1-0--1--4--1-|
2nd Verse (1:05)
 E:---------------------------|
 B:---------------------------|Then Repeat Figure 1  Eight Times
F#:---------------------------|
 B:---0-1-0--1-1-0-4-1--------|
Coda (1:24)
 E:-------------------------|----------------------------------|Play
 B:-------------------------|----------------------------------|Four 
F#:-------------------------|----------------------------------|Times
 B:--0--0--0--7--(7)--7--7-1|--(1)--1---1--8--(8)--8---8----0-|
Break Down (1:34)
 E:------r--
 B:------e-- come back in when the guitars do after the heavy breathing
F#:--.---s--with
 B:--0---t--
		this	|--------Bass Figure 3-----------------|	
 E:---------------------|--------------------------------------|Play
 B:---------------------|--------------------------------------|4
F#:---------------------|------0-------------------------------|Times
 B:----0-13-12--0--0--1-|--3------0--1-0---------0-1-----------|
Brigde (1:44) 
 E:--------------------------------------|
 B:--------------------------------------|Play 7 Times
F#:------0-------------------------------|
 B:--3------0--1-0---------0-1-----------|

 E:--------------------||
 B:--------------------||
F#:----0-------------0-||
 B:-3----0-1--0-/-3----||
5th Chorus (1:54) 
 E:------------------------|--------------------------------Play
 B:------------------------|--------------------------------Four
F#:------------------------|--------------------------------Times
 B:-0--0--0-7--7--7--7--1-|-1--1--1--1--1--1--1--1---------

 E:--------------------|----------------|----------------------|
 B:--------------------|----------------|----------------------|
F#:--------------------|----------------|----------------------|
 B:---0-0-0-7-7-7-7--1|-1-1-1-1-1-1-1-1|-0-0-0-1-0-0-/-5-1----|

 E:-----------------|--------------------|----------------|
 B:-----------------|--------------------|----------------|
F#:-----------------|--------------------|----------------|
 B:--1-1-1-1-1-1-1-1|--0--0--0-7-7-7-7-1|-1-1-1-1-1-1-1-1|

 E:-------------------|----------------||
 B:-------------------|----------------||
F#:-------------------|----------------||
 B:-0-0-0-7-0-12---0-|-1-1-1-1-1-1-1-1||
Outro (2:14)
 E:-------------------|-------------------|-------------------------|
 B:-------------------|-------------------|-------------------------|
F#:-------------------|-------------------|-------------------------|
 B:-0-1-0----0-1-0----|---0-1-0----0-1-0--|---0-1-0--0-1-0-1--4--1--|
Rest until he sings " And it waits for you..." Then play...
 E:------------------------------|
 B:------------------------------|Then rest for 3 measures
F#:------------------------------|
 B:--0--1--0--0--1--0---1--4--1--|
and then come in with 
 E:------------------------------------------------------
 B:-------------------------------------------------------
F#:---------------------------------------------------------
 B:-0--1-0*-----------------------------------------------------

Thats it!
GW Guitar Legends
Please Rate This!!!
Show more