Slipknot:Wait and Bleed

inrto/chorus

[-------------------------------------------------]
[-------------------------------------------------]
[-------------------------------------------------]x4
[--0-0-0-7--7-7-1--1-1-1-8--8-8-8-0---------------]

[-------------------------------------------------]
[-------------------------------------------------]
[-------------------------------------------------]
[-0-1-0---------0-1-0-----------------------------]
verse
[-------------------------------------------------]
[-------------------------------------------------]
[-------------------------------------------------]
[-0-1-0-----0-1-0--1-4-1--0-1-0------0-1-0--1-41--]

[-------------------------------------------------]
[-------------------------------------------------]
[-------------------------------------------------]
[---3--7-0-1-0--0-1-0--3-7-0-1-0----0-1-0---------]
last chorus
[-------------------------------------------------]
[-------------------------------------------------]
[-------------------------------------------------]
[-0-0-0-7-7-7-7-1-1-1-1-1-1-1-1-------------------]
outro[
[-------------------------------------------------]
[-------------------------------------------------]
[-------------------------------------------------]
[-0-1-0--0-1-0-4-1--0-1-0----0-1-0-4-1------------]
Show more