Slipknot
Wait and Bleed
Tuning: Drop D tuning  1 1/2 steps, (low to high) B-F#-B-E
Tabber: (sic)Nyck
Tabbers Note: A harder song to play. Played really fast so you have to be on the ball! This tab is 100% correct! i would appreciate any corrections if any.

starts 00:00 - 00:11
E------------------------------|
B------------------------------|
F#-----------------------------|
B-0---7--7-71--1-1/8--8-8-0---|

then 00:12
E-------------------------------------------------------|
B-------------------------------------------------------|
F#-----0--0----------1--1-1-1------0--------------------|
B-0--0------0-1--1-1----------0--0----0-1--1-1-1-1-1-1-1|

E-----------------------------------------------------------|
B-----------------------------------------------------------|
F#-----0--0----------1--1-1-1------0--0------1---1---1-11-1-|
B-0--0------0-1--1-1----------0--0------0-1----1---1--------|

00:22 - 00:27
E----------------------------------|
B----------------------------------|
F#---------------------------------|
B-000xx000xxx000xx000xxx000xx000xxx|

00:28          |    00:29 - 00:48 
E--------------|-----------------------------|
B--------------|-----------------------------|
F#-------------|-----------------------------|
B-000xx000--7\|000xx000-1-4-1-000xx000-1-4-1|

00:49
E-----------------------------------------------------------|
B-----------------------------0--0-0-0---0-1--0-------------|
F#-----0--0----------1--1-1-1----------3--------4-3-2-1-0---|
B-0--0------0-1--1-1--------------------------------------3-|

E------------------------------------------------------------|
B-----------------------------0-0-0--------------------------|
F#-----0--0----------1--1-0-1-------0--0------1---1---1--111-|
B-0--0------0-1--1-1---------------------0-1----1---1--------|

00:58 - 01:01
E-------------------------------|
B-------------------------------|
F#------------------------------|
B-000xx000-1-4-1-000xx000-1-4-1-|

01:02 - 01:13
E----------------------------------------------|
B----------------------------------------------|
F#---------------------------------------------|
B-000-1-00-1-4-1-000-1-1-0-1-4-1-000xx000-1-4-1|

01:14 - 01:33
E---------------------------------------------------------------------------------|
B---------------------------------------------------------------------------------|
F#-----0--0----------1--1-1-1------0--0----------1--1-1-1------0--0---------------|
B-0--0------0-1--1-1----------0--0------0-1--1-1----------0--0------0-1--11111110-|

01:38 - 01:53
E---------------------------------------------------|
B---------------------------------------------------|
F#-------------------0----------------0-------------|
B-00000011110-0-01-3---0-0-00-0--01-3---0-0-00-0-01-|

01:54 - 02:12
E-----------------------------------------------------------------|
B-----------------------------------------------------------------|
F#----------------------------------------------------------------|
B-0-0-0-7-7-7-71-1-1-1-1-1-1-1-1-0-0-0-7-7-7-71-1-1-1-1-1-1-1-1-|

02:13 - 2:15
E--------------------|
B--------------------|
F#-------------------|
B-000xx000xxx000xx000|

 02:16 - 2:25
E-------------------------------|
B-------------------------------|
F#------------------------------|
B-000xx000-1-4-1-000xx000-1-4-1-|

02:25 - 02:27
E-----|
B-----|
F#----|
B-000-|

Have fun! and keep the (sic)ness alive maggots!

-Six6xiS
Show more