sponsored links
Tabbed By:Eric Vezeau (Vezy)
Band:Sloan
Song:All Used Up

Standard Tunning

This Is A wicked Song!!!

C#5 - x466xx
G#5 - 466xxx
B5  - x244xx
E5  - 022xxx

INTRO:
E|-----------------------------------------------------------------------|
B|-----------------------------------------------------------------------|
G|-----------------------------------------------------------------------|
D|-----------------------------------------------------------------------|
A|--4---------------------2---------------------4---------------------2--|
E|-----2--3--4~~--4----4-----0--1--2~~--2----2-----2--3--4~~--4----4-----|

E|----------------|
B|----------------|
G|----------------|
D|----------------|
A|----------------|
E|--0--1--2~~--2--|

MAIN RIFF:
E|-----------------------------------------------|
B|-----------------------------------------------|
G|-----------------------------------------------|
D|-----------------------------------------------|
A|--4-------------4--3--2------------------------|
E|-----2--3--4---------------0--1--2~~--2--2--0--|

C#5           G#5    B5                       E5
Blind leading blind, trying to keep yourself alive
C#5         G#5         B5                     E5
Wrong doing right, keep flashing that electric smile
C#5              G#5        B5                     E5
Saying something nice, like everything will be all right
C#5            G#5   B5                     E5
Running out of time, trying to keep you occupied

(Chorus, with main riff)
Yeah it's all used up
There's nothing left to trust
Yeah it's all used up
You went and used it up

Rolling all fives, as everything gets cut to size
Holding at nines, making sure that I've got mine
Right before your eyes, something you have yet to find
Swallowing your pride, cause you've got nothing left to hide

Over the first two lines of the second verse, the bass plays this:
G|-----------------------------------------------------------------|
D|-----------------------------------------------------------------|
A|--4--4--4--4--4--4--4--3--3--3--3--3--3--3--3--2--2--2--2--2--2--|
E|-----------------------------------------------------------------|

G|--------------------------|
D|--------------------------|
A|--------------------------|
E|--0--0--0--0--0--0--0--0--|

CHORUS

INTERLUDE
E|--8h9p8h9p8h9--|
B|---------------|
G|---------------|
D|---------------|
A|---------------|
E|---------------|

And so forth...play that for awhile, then that guitar then has a little
solo under the chorus lyrics.

CHORUS

In the outro, another guitar plays the intro riff, an octave higher:
E|------------------------------------|
B|------------------------------------|
G|--6----------------4----------------|
D|-----4--5--6----6-----2--3--4----4--|
A|------------------------------------|
E|------------------------------------|

End the song on C#5 and slide down.

Enjoy!!!!!!
Show more
sponsored links
sponsored links