• Song:

    Frail And Bedazzled

  • Artist:

    Smashing Pumpkins

sponsored links
================================================================================
                       S M AS (x02220@1)H I N G (320003@1) P U M P K I N S

-

FR (133211@1)AI (x02220@1)L   AN (x02220@1)D (xx0232@1) B (x2444x@1)name="chord_022100@1">E D (xx0232@1)name="chord_x02220@1">A Z Z L E (022100@1)name="chord_xx0232@1">D
================================================================================

PISCES ISCARIOT
                           (c) Virgin Records (1994)
                        http://www.smashingpumpkins.com/

Drop D Tuning
                                  D (xx0232@1)name="chord_x02220@1">A D (xx0232@1)name="chord_320003@1">G B (x2444x@1)name="chord_022100@1">E

Note that the tuning is actually 25 cents higher than stated.

Tempo = 114 BPM
                               Time Signature = 4/4



-----------------------------
                                 Transcribed by

PADDY MCMULLAN
                           pmtabs (@t) gmail [dot] com

Version 1.0
                               16th November 2010
                             -----------------------

Tablature Symbols Used:

p         -  Pull-Off
 h (x2444x@1)       -  Hammer-On
 14b16     -  Bend Note
 16r14     -  Release Bend
 ~~        -  Vibrato
 (/)       -  Legato Slide (Blank space indicates length of slide)
 \         -  Slide Down to/Down From (Blank space indicates length of slide)
 /         -  Slide Up To/Up From (Blank space indicates length of slide)
 ( )       -  Ghost Note/Tied Note/Implied Note
 REST      -  Rest and sustain rest for duration of blank space
        -  Harmonic
 P.H.   -  Pinch/Artificial Harmonic



================================================================================
Part 1: Guitars 1 & 2 w/ Distortion                       [ Time 00:00 - 00:26 ]
================================================================================

Guitar 2 joins in during the second half of the second bar of the second repeat

||--------------------------------|-----------------------------| |
||--------------------------------|-----------------------------| |
||--6--6-6-7p6-6-6--6-6-6-7p6-7p6-|--6--6-6-7p6-6-6---7-----7---|*|
||--7--7-7-7---7-7--7-7-7-7---7---|--7--7-7-7---7-7---7-----7---|*| x 6
||--0--0-0-5p0-0-0--0-0-0-5p0-5p0-|--0--0-0-5p0-0-0-0-5---0-5---| |
||--------------------------------|-----------------------------| |



The notes on the G-string are barely perceptible most of the time, but they're
definitely being played.  The riff is best played by anchoring your middle two
fingers to the D and G-strings throughout, using your first and fourth fingers
to perform the pull-offs.



================================================================================
Part 2: Guitars 1 & 2                                     [ Time 00:26 - 00:44 ]
================================================================================

||------------------------------|------------------------------|
||------------------------------|------------------------------|
||--6--6-6-7--6-6--6-6-6-7--6-6-|--6--6-6-7--6-6--6-6-6-7--6-6-|
||--7--7-7-7--7-7--7-7-7-7--7-7-|--7--7-7-7--7-7--7-7-7-7--7-7-|
||--0--0-0-5--0-0--0-0-0-5--0-0-|--0--0-0-5--0-0--0-0-0-5--0-0-|
||------------------------------|------------------------------|

|____________________________[1]
|------------------------------|----------------------------| |
|------------------------------|----------------------------| |
|--6--6-6-7--6-6--6-6-6-7--6-6-|--6--6-6-7--6-6---7-----7---|*|
|--7--7-7-7--7-7--7-7-7-7--7-7-|--7--7-7-7--7-7---7-----7---|*| x 2
|--0--0-0-5--0-0--0-0-0-5--0-0-|--0--0-0-5--0-0-0-5---0-5---| |
|------------------------------|----------------------------| |

|_____________________________[2]
|------------------------------||
|------------------------------||
|--6--6-6-7--6-6---7--7--7-7-7-||
|--7--7-7-7--7-7---7--7--7-7-7-||
|--0--0-0-5--0-0-0-5--5--5-5-5-||
|------------------------------||



================================================================================
Part 3: Guitars 1, 2, 3 & 4 w/ Distortion                 [ Time 00:44 - 01:10 ]
================================================================================

--------------
Guitars 1 & 2:
--------------

Repeat Part 1 twice, then rest for one and a half bars before continuing
from where you left off for 4 more repeats.  Replace the very last bar with the
following:



|--------------------------------||
|--------------------------------||
|--6--6-6-7p6-6-6---7--7-7-7-7-7-||
|--7--7-7-7---7-7---7--7-7-7-7-7-||
|--0--0-0-5p0-0-0-0-5--5-5-5-5-5-||
|--------------------------------||



---------
Guitar 3:
---------

||----------------------------------------------|
||----------------------------------------------|
||--19p16-18-------19p16-18-------19p16-18------|
||-----------17~~-----------17~~-----------17~~-|
||----------------------------------------------|
||----------------------------------------------|

|-----------------------------------|
|-----------------------------------|
|-----------------------------------|
|--(17)~~----(16h17p16\14)-16~~-- /-|
|-----------------------------------|
|-----------------------------------|

|----------------------------------------------|
|----------------------------------------------|
|--19p16-18-------19p16-18-------19p16-18------|
|-----------17~~-----------17~~-----------17~~-|
|----------------------------------------------|
|----------------------------------------------|

|-----------------------------------||
|-----------------------------------||
|---------------------------------*-||
|--(17)~~----(16h17p16\14)-16~~-- b-||
|-----------------------------------||
|-----------------------------------||



* Bend the string a quarter note for a fraction of a second at the end of the
run.



---------
Guitar 4:
---------

||-------------------------------------------|
||-------------------------------------------|
||-------------------------------------------|
||--12p9-11-------12p9-11-------12p9-11------|
||----------10~~----------10~~----------10~~-|
||-------------------------------------------|

|-------------------------------|-------------------------------------------|
|-------------------------------|-------------------------------------------|
|-------------------------------|-------------------------------------------|
|-------------------------------|--12p9-11-------12p9-11-------12p9-11------|
|--(10)------(9h10p9\7)-9~~-- /-|----------10~~----------10~~----------10~~-|
|-------------------------------|-------------------------------------------|

|------------------------------||
|------------------------------||
|------------------------------||
|------------------------------||
|--(10)------(9h10p9\7)-9~~----||
|------------------------------||



================================================================================
Part 4: Guitars 1 & 2                                     [ Time 01:10 - 01:27 ]
================================================================================

||----------------------------|---------------------------------|
||----------------------------|---------------------------------|
||--7----7----7----7----7--7--|---------------------------------|
||--7----7----7----7----7--7--|--7----2-2-2--2-2-2-2--2-2-2-2-2-|
||--5--0-5--0-5--0-5--0-5--5--|-(5\4)-0-0-0--0-0-0-0--0-0-0-0-0-|
||----------------------------|---------------------------------|

|----------------------------|---------------------------------|
|----------------------------|---------------------------------|
|----7----7----7----7--7--7--|---------------------------------|
|----7----7----7----7--7--7--|--7----2-2-2--2-2-2-2--2-2-2-2---|
|--0-5--0-5--0-5--0-5--5--5--|-(5\4)-0-0-0--0-0-0-0--0-0-0-0-0-|
|----------------------------|---------------------------------|

|----------------------------|---------------------------------|
|----------------------------|---------------------------------|
|--7----7----7----7----7--7--|---------------------------------|
|--7----7----7----7----7--7--|--7----2-2-2--2-2-2-2--2-2-2-2-2-|
|--5--0-5--0-5--0-5--0-5--5--|-(5\4)-0-0-0--0-0-0-0--0-0-0-0-0-|
|----------------------------|---------------------------------|

|----------------------------|---------------------------------||
|----------------------------|---------------------------------||
|----7----7----7----7--7--7--|---------------------------------||
|----7----7----7----7--7--7--|--7----2-2-2--2-2-2-2--2-2-2-2---||
|--0-5--0-5--0-5--0-5--5--5--|-(5\4)-0-0-0--0-0-0-0--0-0-0-0-0-||
|----------------------------|-------------------------------0-||



================================================================================
Part 5: Guitars 1 & 2                                     [ Time 01:27 - 01:44 ]
================================================================================

---------
Guitar 1:
---------

|______________________________[1,2,3]
||----------------------------|----------------------------------| |
||----------------------------|----------------------------------| |
||----------------------------|----------------------------------|*|
||----------------------------|----------------------------------|*| x 4
||----5----5----5----5--5--5--|--(5\4)-0-0-0--0-0-0-0--0-0-0-0-0-| |
||--0-5--0-5--0-5--0-5--5--5--|--(5\4)-0-0-0--0-0-0-0--0-0-0-0-0-| |

|_________________________________[4]
|----------------------------------||
|----------------------------------||
|----------------------------------||
|----------------------------------||
|--(5\4)-0-0-0--0-0-0-0--0-0-------||
|--(5\4)-0-0-0--0-0-0-0--0-0-5  /  ||



---------
Guitar 2:
---------

||----------------------------|---------------------------------|
||----------------------------|---------------------------------|
||----------------------------|---------------------------------|
||----------------------------|---------------------------------|
||----5----5----5----5--5--5--|--(5\4)-0-0-0--0-0-3h5-3-3-5~~---|
||--0-5--0-5--0-5--0-5--5--5--|--(5\4)-0-0-0--0-0---------------|

|----------------------------|----------------------------------|
|----------------------------|----------------------------------|
|----------------------------|----------------------------------|
|----------------------------|----------------------------------|
|----5----5----5----5--5--5--|--(5\4)-0-0-0--0-0-0-0--0-0-0-0-0-|
|--0-5--0-5--0-5--0-5--5--5--|--(5\4)-0-0-0--0-0-0-0--0-0-0-0-0-|

|----------------------------|--------------------------------------|
|----------------------------|--------------------------------------|
|----------------------------|--------------------------------------|
|----------------------------|-----------------------------P.H.-----|
|----5----5----5----5--5--5--|--(5\4)-0-0-0--5p3-5p3-3h5p3-~~----|
|--0-5--0-5--0-5--0-5--5--5--|--(5\4)-0-0-0-------------------------|

|----------------------------|--------------------------------||
|----------------------------|--------------------------------||
|----------------------------|--------------------------0-----||
|----------------------------|--------------------------0--0--||
|----5----5----5----5--5--5--|--(5\4)-0-0-0--0-0-----------0--||
|--0-5--0-5--0-5--0-5--5--5--|--(5\4)-0-0-0--0-0-/17~~-----0--||



================================================================================
Part 6: Guitars 1, 2, 3, 4 & 5                            [ Time 01:44 - 02:09 ]
================================================================================

--------------
Guitars 1 & 2:
--------------

||------------------------------|------------------------------| |
||------------------------------|------------------------------| |
||---------------------------|---------------------------|*|
||---------------------------|---------------------------|*| x 2
||--0---0--------0-5--5-5-5-4-4-|--0---0--------0-5--5-5-5-4-4-| |
||--0---0--------0-5--5-5-5-4-4-|--0---0--------0-5--5-5-5-4-4-| |

|______________________________[1]
||------------------------------|------------------------------| |
||------------------------------|------------------------------| |
||------------------------------|------------------------------|*|
||---------------------------|---------------------------|*| x 2
||--0---0-----0-5--5-5-5-4-4-|--0---0-----0-5--5-5-5-4-4-| |
||--0---0--------0-5--5-5-5-4-4-|--0---0--------0-5--5-5-5-4-4-| |

|__________________________[2]
|---------------------------||
|---------------------------||
|---------------------------||
|------------------------||
|--0---0-----0-5---0-6---||
|--0---0--------0-5---0-6---||



---------
Guitar 3:
---------

||----------------------------------------------------------|
||----------------------------------------------------------|
||--(11/12)-12-12-(12/14)-14-14-(14/16)-16-16-(16\14)-14-14-|
||----------------------------------------------------------|
||----------------------------------------------------------|
||----------------------------------------------------------|

|------------------------------------|-----------------------------|
|------------------------------------|-----------------------------|
|--(14\12)-12-12-(12\11)-12~~--------|--14~~---12p11-12~~----------|
|------------------------------------|-----------------------------|
|------------------------------------|-----------------------------|
|------------------------------------|-----------------------------|

|___3__|
|-------------------------------------||
|-------------------------------------||
|--11---11-(11h12p11h12)~~------------||
|--------------------------12~~-------||
|-------------------------------------||
|-------------------------------------||



---------
Guitar 4:
---------

||------------------------------------------|-----------------------------|
||------------------------------------------|-----------------------------|
||------------------------------------------|-----------------------------|
||--(4/5)-5-5-(5/7)-7-7-(7/9)-9-9-(9\7)-7-7-|--(7\5)-5-5-(5\4)-5~~--------|
||------------------------------------------|-----------------------------|
||------------------------------------------|-----------------------------|

|_3_|
|-------------------------|---------------------------||
|-------------------------|---------------------------||
|-------------------------|---------------------------||
|--7~~---5h7-5~~----------|--4---4-4h5p4h5------------||
|-------------------------|-----------------5~~-------||
|-------------------------|---------------------------||



---------
Guitar 5: with Distortion and Octave Pedal
---------



||-------------------|-------------------------------|
||--R--            --|-------------------------------|
||--E--            --|--(11 r 9)--7--(b11)---- \--|
||--S--            --|-------------------------------|
||--T--            --|-------------------------------|
||-------------------|-------------------------------|

|-------------------------------|---------------------------------------||
|--   --(r10)---------------|---------------------------------------||
|--   ---P.H.--------7--9-------|-----(b10r9)------~~----- \--||
|--   ---------------------7----|-(7)--P.H.----------P.H.    -----------||
|--   --------------------------|---------------------------------------||
|-------------------------------|---------------------------------------||



The octave pedal is set to one octave below the written notes



================================================================================
Rest for 7 bars before continuing                         [ Time 02:29 - 02:28 ]
================================================================================

================================================================================
Repeat Part 2 eight times then play the following:        [ Time 02:28 - 02:54 ]
================================================================================

|----------------------------||
|----------------------------||
|----------------------------||
|----------------------------||
|--5--0-5--0-5--0-5--0-5--6--||
|--5--0-5--0-5--0-5--0-5--6--||



================================================================================
Outro: Guitars 1, 2, 3 & 4                                [ Time 02:54 - 03:17 ]
================================================================================

---------
Guitar 1:
---------

||--------------------------------|-----------------------------| |
||--------------------------------|-----------------------------| |
||--------------------------------|-------------------7-----7---|*|
||--------------------------------|-------------------7-----7---|*| x 3
||--7--7-7-5-5-5-7--7-7-7-5-5-5-5-|--7--7-7-5-5-5-5-0-5---0-5---| |
||--7--7-7-5-5-5-7--7-7-7-5-5-5-5-|--7--7-7-5-5-5-5-0-0---0-0---| |

|--------------------------------|-----------------------------|
|--------------------------------|-----------------------------|
|--------------------------------|-------------------7-----6---|
|--------------------------------|-------------------7-----6---|
|--7--7-7-5-5-5-7--7-7-7-5-5-5-5-|--7--7-7-5-5-5-5-0-5---0-4---|
|--7--7-7-5-5-5-7--7-7-7-5-5-5-5-|--7--7-7-5-5-5-5-0-0---0-----|

|-------------------------||
|-------------------------||
|-------------------------||
|----5---5  \  0-0---7----||
|--0-5---5  \  0-0---5----||
|--0-5---5  \  0-0---0----||



---------
Guitar 2:
---------

Repeat Part 1 4 times, with the followign variations in the last repeat:

|--------------------------------|-----------------------------|
|--------------------------------|-----------------------------|
|--6--6-6-7p6-6-6--6-6-6-7p6-7p6-|--6--6-6-7p6-6-6---7-----6---|
|--7--7-7-7---7-7--7-7-7-7---7---|--7--7-7-7---7-7---7-----6---|
|--0--0-0-5p0-0-0--0-0-0-5p0-5p0-|--0--0-0-5p0-0-0-0-5---0-4---|
|--------------------------------|-----------------0-----0-----|

|-------------------------||
|-------------------------||
|-------------------------||
|----5---5  \  0-0---7----||
|--0-5---5  \  0-0---5----||
|--0-5---5  \  0-0---0----||



---------
Guitar 3:
---------

Repeat Part 3, and continue with the following:

|--------------------------------|-----------------------------12~~-|
|--------------------------------|--------12~~---14~~---15~~--------|
|-------------11~~---12~~---14~~-|--(14)----------------------------|
|--12~~---14---------------------|----------------------------------|
|--------------------------------|----------------------------------|
|--------------------------------|----------------------------------|

|--(12)--14~~---15~~---17~~---17 b |  19~~------------------||
|----------------------------------|-----------------R-    -||
|----------------------------------|-----------------E-    -||
|----------------------------------|-----------------S-    -||
|----------------------------------|--------12  \  --T-    -||
|----------------------------------|--------12  \  ---------||



---------
Guitar 4:
---------

Repeat Part 3, and continue with the following:

|---------------------------|-------------------------------|
|---------------------------|-------------------------------|
|---------------------------|-------------------------------|
|-----------4~~---5~~---7~~-|-(7)--9~~---11~~---12~~---14~~-|
|--5~~---7------------------|-------------------------------|
|---------------------------|-------------------------------|

|--------------------------------|--------------------------||
|--------------------------------|---------------R-        -||
|------11~~---12~~---14~~---14 b |  16~~---------E-        -||
|-(14)---------------------------|---------------S-        -||
|--------------------------------|-------12  \  -T-        -||
|--------------------------------|-------12  \  ------------||



================================================================================
End
================================================================================

Tab summary:        Part 1 x 6
                    Part 2 x 2
                    Part 3 x 1
                    Part 4 x 1
                    Part 5 x 4
                    Part 6 x 4
                    Part 2 x 8
                    Outro x 1

END
Show more
sponsored links
sponsored links