strum in ur own pattern these are the correct chords. all strings sould be tuned to Eb 
sounds ok in standard.

steve r


verse 1
     i got a new suspicion.     When i woke up today

E|---3--------------------------3-----------------|
B|---3--------------------------3-----------------|
G|---2--------------------------2-----------------|
D|---0--------------------------0-----------------|
A|---x--------------------------x-----------------|
E|---3--------------------------2-----------------|

     feels like theres something. "   cant go on "

E|---0-------------------------------3-----------------|
B|---1-------------------------------4-----------------|
G|---0-------------------------------3-----------------|
D|---2-------------------------------5-----------------|
A|---0-------------------------------3-----------------|
E|-----------------------------------------------------|

repeat above for next verse.

chorus

     till its time to go.     wont hang around       im outta time

E|---1------------------------3--------------------------------------|
B|---1------------------------3--------------------3-----------------|
G|---2------------------------0--------------------2-----------------|
D|---3------------------------0--------------------0-----------------|
A|---3------------------------2--------------------0-----------------|
E|---1------------------------3--------------------2-----------------|


    no one you know         could stop me now       im faster than...

E|--0---------------------3------------------------3----------------------|
B|--1---------------------4------------------------3----------------------|
G|--0---------------------5------------------------0----------------------|
D|--2---------------------5------------------------0----------------------|
A|--0---------------------3------------------------2----------------------|
E|-------------------------------------------------3----------------------|

      the speed of sound...  its over...       all you do is....

E|----------------------------0----------------3--------------------------|
B|----3-----------------------1----------------4--------------------------|
G|----2-----------------------0----------------5--------------------------|
D|----0-----------------------2----------------5--------------------------|
A|----0-----------------------0----------------3--------------------------|
E|----2-------------------------------------------------------------------|


     all you do is wear me down      all you do is wear me            down

E|---3---------------------------------------------------------------------|
B|---4-------------------------------15--------15----------13-------12-----|
G|---5------------------------------------12--------12---------12-------12-|
D|---5---------------------------------------------------------------------|
A|---3---------------------------------------------------------------------|
E|-------------------------------------------------------------------------|

keep playing above for correct amount of time


i got a new suspicion..       when i woke up today        feels like theres

E|------3----------------------3---------------------------0-----------------|
B|------3----------------------3---------------------------1-----------------|
G|------2----------------------2---------------------------0-----------------|
D|------0----------------------0---------------------------2-----------------|
A|-----------------------------x---------------------------0-----------------|
E|------3----------------------2---------------------------------------------|

    wont hang around    im out of time       no one you know

E|---3----------------------------------------0------------------------------|
B|---3-------------------3--------------------1------------------------------|
G|---0-------------------2--------------------0------------------------------|
D|---0-------------------0--------------------2------------------------------|
A|---2-------------------0--------------------0------------------------------|
E|---3-------------------2---------------------------------------------------|


   can stop me know       im faster than...      the speed of sound

E|---3--------------------3--------------------------------------------------|
B|---4--------------------3-----------------------3--------------------------|
G|---5--------------------0-----------------------2----------------------| --|
D|---5--------------------0-----------------------0--------------------------|
A|---3--------------------2-----------------------0--------------------------|
E|------------------------3-----------------------2--------------------------|


tabbed by steve r


-
Show more