Were Not Alone - Son Of Dork
Created By Scott Evans

Into
E 22222222-----------------------------|
A --------55555555-77777777-55555555---|  x2
D -------------------------------------|
G -------------------------------------|

Verse
E 2222222222222222---------------------------------222255555555----|
A ----------------5555555555555555 7777777777777777----------------|   x2
D -----------------------------------------------------------------|
G -----------------------------------------------------------------|

Pre-Chorus
E -----------------------------------222255555555-|
A 77-77-77-77-55-55-55-55-77-77-77-77-------------|
D ------------------------------------------------|
G ------------------------------------------------|

Chorus
E 22222222-------------------------------|
A --------55555555-77777777-4444-2222----|   x2
D ---------------------------------------|
G ---------------------------------------|

E 2-222------------------|
A -----5-555-7-777-5-555-|
D -----------------------|
G -----------------------|

E 2-222-----------------------|
A -----5-555-7777777-55555555-|
D ----------------------------|
G ----------------------------|

End of Chorus
E -------10-10-10-10-|
A 9-9-9-9------------|
D -------------------|
G--------------------|

Verse x2

Pre Chorus

Chorus

Solo - Do the Chours again i think

Chorus - Till end

End With

E -------10-10-10-10-|
A 9-9-9-9------------|
D -------------------|
G -------------------|
Show more