------------------------------------------------------------------------------- 
MICHAEL (SOLO) - Son Of Sam 
------------------------------------------------------------------------------- 

By:Jayheadsrevenge@aol.com 
Repeat 2 times 
e|--6-------------------------------------------------------------------------| 
B|---7----4-------2---6-------------------------------------------------------| 
G|----8----4-----3-----7------------------------------------------------------| 
D|----------4---4-------8-----------------------------------------------------| 
A|----------------------------------------------------------------------------| 
E|----------------------------------------------------------------------------| 

100% for sure that this is right. DUDE?
Show more